Modest Mouse - Breakthrough Chords & Tabs

 

Breakthrough Chords & Tabs

Modest Mouse Chords & Tabs

Version: 1 Type: Bass Tab

Breakthrough Bass Tab

----------------------------------------------------------------------------		     
BREAKTHROUGH - Modest Mouse
----------------------------------------------------------------------------



Verse/During solo:

G|-------------------------------------------------|
D|-------------------------------------------------|
A|-------33333-------------------------6666--------|
E|-----------------33333------2222-----------------|

[ Tab from: http://www.guitartabs.cc/tabs/m/modest_mouse/breakthrough_btab.html ]
Other Times:

G|-------------3-1---------------------10-8--------|
D|-----------1---------------------8---------------|
A|---3-3-3--------3---10-10-10-------10------------|
E|-------------------------------------------------|

G|-------------8-6-------------------------------|
D|-----------6-----------------------------------|
A|---8-8-8---------6---6-6-6-6-6-6-6-6-----------|
E|-----------------------------------------------|