Modest Mouse - Blue Waves Chords & Tabs

 

Blue Waves Chords & Tabs

Modest Mouse Chords & Tabs

Version: 1 Type: Tab 0 ratings
1 star 2 stars 3 stars 4 stars 5 stars
comments

Blue Waves Tab

TABBED BY: AUSTIN QUINN caddilacpokin1@hotmail.com, for any corrections
By:Modest Mouse
Song: Blue waves

E---1-3-3-5------------------------3/5-------|
B---------3-7-5-------------7-5--------7/5---|
G---------------7----------------3-----------|
D--------------------5-5-------------------3-|
A--------------------3-3-7-------------------|
E------------------3-----5-------------------|

This song really has a change in beat throughout the song, but that is what gives is 
Many people haven't heard this song but its a really well played song


Ohhh-ohhhhhh  ocean shore, the sand and waves you wouldnt know...
[ Tab from: http://www.guitartabs.cc/tabs/m/modest_mouse/blue_waves_tab.html ]
E----------------------------------------------------|
B----------------------------------------------------|
G-7-7-7--------------------8-8-8-4-4-4---------------|
D-9-9-9--------------------6-6-6-2-2-2---8-8-8-8-----|
A-7-7-7--5-5--0h2------7---------0-0-----6-6-6-6-6---|
E -------7-7------0h2--5---------------------------8-| Repeat 2x

E-7---4---------12-----------------------------------|
B---5---10-12-7--------------------------------------|
G------------------14-----9-9-----9-9----9-9----9-9--|
D-------------------------7-7-----7-7----7-7----7-7--|
A----------------------0-0-----9-9----0-0----9-9-----|Repeat chord riff 4x
E----------------------------------------------------|

Thats basically the whole song, there is some things done with computers that you cant 
and that takes up a while of the song, but other than that these are the tabs
Comments