Modest Mouse - Blame It On The Tetons Chords & Tabs

 

Blame It On The Tetons Chords & Tabs

Modest Mouse Chords & Tabs

Version: 2 Type: Tab 0 ratings
1 star 2 stars 3 stars 4 stars 5 stars
comments

Blame It On The Tetons Tab

Tabbed by:CMM
Email:colin_michael_muppet@hotmail.com

Tuning:Standard

(Main Part)
e|-------------------------------------------------------------------------|
B|-0--0--0--0--0--0--------------------------------------------------------|
G|-4--4--4--4--5--7----0--0--0--0--0--0----0--0--0--0--0--0--0--0---0--0--0|
D|-5--5--5--5--5--5----4--4--4--4--5--7----2--2--2--2--2--0--0--2---2--2--2|
A|---------------------5--5--5--5--5--5----3--3--3--3--3--3--3--3---3--3--3|
E|-------------------------------------------------------------------------|

e|--------------|
B|--------------|
G|-0--0--0--0---|
D|-5--5--2--0---|
A|-3--3--3--3---|
E|--------------|
[ Tab from: http://www.guitartabs.cc/tabs/m/modest_mouse/blame_it_on_the_tetons_tab_ver_2.html ]
(Outro)
e|-------------------------------------------------------------------------|
B|--0---0--0--0--0---------------------------------------------------------|
G|--4---4--4--5--4----0--0--0-0-0-0--0--0--0-0-----------------------------|
D|--5---5--5--5--5----2--2--2-2-2-2--2--2--2-2----7--7--7-7-7-7--7--7--7-7-|
A|--------------------3--3--3-3-3-3--3--3--3-3----7--7--7-7-7-7--7--7--7-7-|
E|------------------------------------------------5--5--5-5-5-5--5--5--5-5-|

e|--------------------------|
B|--------------------------|
G|--0--0--0-0-0-0--0--0-0-0-|
D|--0--0--0-0-0-0--0--0-0-0-|
A|--2--2--2-2-2-2--2--2-2-2-|
E|--3--3--3-3-3-3--3--3-3-3-|

Forgot to include the outro in my Good News tab. Here it is.
Comments