Modest Mouse - Birds Vs Worms Chords & Tabs

 

Birds Vs Worms Chords & Tabs

Modest Mouse Chords & Tabs

Version: 4 Type: Tab 0 ratings
1 star 2 stars 3 stars 4 stars 5 stars
comments

Birds Vs Worms Tab


------------------------------------------------------------------------'
------------------------------------------------------------------------'
-----9----------9-----------12------------------------------------------'
--10----10--10----10/12--12----12/10---7-7-7-7--5---7-7-7-7-5--7--9-10--'
------------------------------------------------------------------------'
------------------------------------------------------------------------'


                                         Self pity  me     so pitiful
--------------------------------------------------------------------------'
--------------------------------------------------------------------------'
--7--7---7---7---7---7----------------------------------------------------'
--9--9---9---9---9---9---7--7--7--7--7---7--7--7--7--7---7--7--7--7--7----'
-10-10--10--10--10--10---5--5--5--5--5---x--x--x--x--x---5--5--5--5--5----'
-----------------------------------------5--5--5--5--5--------------------'

 you can see that             birds and worms don't get along
-------------------------'    '---------------------------------|
-------------------------'    '---------------------------------|
--7--7---7---7---7---7---'    '---------------------------------|
--9--9---9---9---9---9---'    '-7--7--7--7--7--7----------------|
-10-10--10--10--10--10---'    '-5--5--5--5--5--5----------------|
-------------------------'    '---------------------------------|

  Self righteous         me so wrong, though        you can see that
--------------------   ----------------------  --------------------------|
--------------------   ----------------------  --------------------------|
--------------------   ----------------------  ---7---7---7---7---7--7---|
-7--7--7--7--7--7---   --7--7--7--7--7--7----  ---9---9---9---9---9--9---|
-x--x--x--x--x--x---   --5--5--5--5--5--5----  --10--10--10--10--10--10--|
-5--5--5--5--5--5---   ----------------------  --------------------------|
[ Tab from: http://www.guitartabs.cc/tabs/m/modest_mouse/birds_vs_worms_tab_ver_4.html ]
we don't have to get along        self pity        me so pitiful
--------------------------   -------------------   ----------------|
--------------------------   -------------------   ----------------|
--------------------------   -------------------   ----------------|
-7--7---7---7--7--7-------   --7--7--7--7--7----   -7--7--7--7--7--|
-5--5---5---5--5--5-------   --x--x--x--x--x----   -5--5--5--5--5--|
--------------------------   --5--5--5--5--5----   ----------------|

you can see that        birds and worms do not agree
---------------------   ---------------------------|
---------------------   ---------------------------|
--7---7---7---7---7--   ---------------------------|
--9---9---9---9---9--   --7---7---7---7---7--------|
-10--10--10--10--10--   --5---5---5---5---5--------|
---------------------   ---------------------------|

and we will              crawl
-----------------   -----------------------------------------------------|
-----------------   -----------------------------------------------------|
-----------------   --------------------------------9---------9------12--|
--7--7--7--7--7--   --7--7--7--7--7-----5--7--9--10----10--10---10/12----|
--x--x--x--x--x--   --5--5--5--5--5--------------------------------------|
--5--5--5--5--5--   -----------------------------------------------------|

---------------------------------------------|
---------------------------------------------|
---------------------------------------------|
-12/10--7-7-7-7-7--5--7-7-7-7-7-5--7--9------|
---------------------------------------------|
---------------------------------------------|

------------------------------------------------------------------------'
------------------------------------------------------------------------'
-----9----------9-----------12------------------------------------------'
--10----10--10----10/12--12----12/10---7-7-7-7--5---7-7-7-7-5--7--9-10--'
------------------------------------------------------------------------'
------------------------------------------------------------------------'

hope you like,
bobbytabasco...
Comments