Modest Mouse - Bankrupt On Selling Chords & Tabs

 

Bankrupt On Selling Chords & Tabs

Modest Mouse Chords & Tabs

Version: 1 Type: Tab 0 ratings
1 star 2 stars 3 stars 4 stars 5 stars
comments

Bankrupt On Selling Tab

   
#----------------------------------PLEASE NOTE---------------------------------#
#This file is the author's own work and represents their interpretation of the #
#song. You may only use this file for private study, scholarship, or research. #
#------------------------------------------------------------------------------#

Bankrupt On Selling - Modest Mouse
Tabbed by TragicallyHip15

E------------------------------------------------------------------------------
B---1---1---1----1-1--3--1-1-1--0--1-1------1--1--11--3--1--1--1---0-1--11-----
G---0---0---0----0-0--0--0-0-0--0--0-0------2--2--22--2--2--2--2---2-2--22-----
D---2---2---2----2-2--2--2-2-2--2--2-2------2--2--22--2--2--2--2---2-2--22-----
A---3---3---3----3-3--3--3-3-3--3--3-3------0--0--00--0--0--0--0---0-0--00-----
E------------------------------------------------------------------------------


[ Tab from: http://www.guitartabs.cc/tabs/m/modest_mouse/bankrupt_on_selling_tab.html ]
E--0----0----0--0----0--0--0--0---3--------------------------------------
B--0----0----0--0----3--3--3--3---3----1-----------1---1---1--1----------
G--0----0----0--0----0--0--0--0---0----2---2-------2---2---2--2----------
D--2----2----2--2----2--2--2--2---2---------3-------3---3---3--3---------
A--2----2----2--2----2--2--2--2---2------------3----3---3---3--3---------
E--0----0----0--0----0--0--0---0---0-------------------------------------

On the last one
E------------------------------
B------------------------------
G------------------0-----------
D---------0------------0-------
A—0h2-------0-----------0------
E------------------------------

End in a C


Play a riff for each verse 
On the extra verses play with the above tabs
on the plain verse play with the below tab

E------------------------------------------------------------------------------
B---1---1---1----1-1--3--1-1-1--0--1-1------1--1--11--3--1--1--1---0-1--11-----
G---0---0---0----0-0--0--0-0-0--0--0-0------2--2--22--2--2--2--2---2-2--22-----
D---2---2---2----2-2--2--2-2-2--2--2-2------2--2--22--2--2--2--2---2-2--22-----
A---3---3---3----3-3--3--3-3-3--3--3-3------0--0--00--0--0--0--0---0-0--00-----
E------------------------------------------------------------------------------



E--0----0----0--0----0--0--0--0---3---------------------------
B--0----0----0--0----3--3--3--3---3----1---1---1--1--1--1-----
G--0----0----0--0----0--0--0--0---0----2---2---2--2--2--2-----
D--2----2----2--2----2--2--2--2---2----3---3---3--3--3--3-----
A--2----2----2--2----2--2--2--2---2----3---3---3--3--3--3-----
E--0----0----0--0----0--0--0---0---0--------------------------

Comments