Modest Mouse - Alone Down There Chords & Tabs

 

Alone Down There Chords & Tabs

Modest Mouse Chords & Tabs

Version: 4 Type: Tab 0 ratings
1 star 2 stars 3 stars 4 stars 5 stars
comments

Alone Down There Tab

Alone down there
by modest mouse

Verse
e-----------------------|
B-----------------------|
G-----------------------| repeat
D--------------7-5------|
A-----9-9-10-0----7-5-7-|
E----7-7----------------|


lead into chorus
e-------------------------------------|
B-------------------------------------|
G-------------------------------------|
D-------------------------------------|
A----99999999444444445555555577777777-|
E----77777777222222223333333355555555-|

chorus
e--------------------------------------|
B--------------------------------------|
G--------------------------------------|
D------------------------7-5-4h5p4-----|
A----14-14-12-10-9--9-7-9---------7-5--|
E--------------------------------------|

OR
[ Tab from: http://www.guitartabs.cc/tabs/m/modest_mouse/alone_down_there_tab_ver_4.html ]
e------------------------------------|
B------------------------------------|
G---------------------2-0------------|
D----9-9-7-5-4--4-2-4-----4h5p4------|
A-------------------------------7-5--|
E------------------------------------|


bridge
e--------------------------------------|
B--------------------------------------|
G--------------------------------------|
D----44444444--------------------------|
A----22222222444444445555555577777777--|
E------------222222223333333355555555--|

solo
e----------------------|
B----------------------|
G----7--11-7-6-4-----6-|
D----X--X--X-X-X-5-7-X-| REPEAT
A----5--9--5-4-2-X-X-4-|
E----------------3-5---|

that is the song, if you have any questions
my email is chad_is_dank@yahoo.com
keep jammin
Comments