Modest Mouse - All Nite Diner Chords & Tabs

 

All Nite Diner Chords & Tabs

Modest Mouse Chords & Tabs

Version: 3 Type: Tab 0 ratings
1 star 2 stars 3 stars 4 stars 5 stars
comments

All Nite Diner Tab

   
By:Modest Mouse
Song: All Nite Diner
tabbed by chrtes


| /  slide up
| \  slide down
| h  hammer-on
| p  pull-off
| ~  vibrato
| +  harmonic
| x  Mute note

This part is played through the whole song.

e|---------------------------------------------------------------|
b|---------------------------------------------------------------|
g|---------------------------------------------------------------|
D|----/----9------9-----9----------/-----4----4----4-------------|
A|----/----10-----10---10----------/-----5----5----5-------------|
E|---------------------------------------------------------------|


Second guitar

e|----7--------------------7----------------------------------|
b|---------7--8----------------7--8---------------------------|
g|---------------11--7---------------11---7-----6--7-7-7------|
D|------------------------------------------------------------|
A|------------------------------------------------------------|
E|------------------------------------------------------------|

e|------------------------------------------------------------|
B|------------------------------------------------------------|
G|------------------------------------------------------------|
D|---7-7-7--7--5----7-7-7--7-5-----2-2-2--2-0----2-2-2--2-0---|
A|------------------------------------------------------------|
E|------------------------------------------------------------|


solo

e|------------------------------------------------------------|
B|------------------------------------------------------------|
G|---9-9-9-9-----9-9-9-9--9-9-9---11-11-11--------------------|
D|------------------------------------------------------------|
A|------------------------------------------------------------|
E|------------------------------------------------------------|

[ Tab from: http://www.guitartabs.cc/tabs/m/modest_mouse/all_nite_diner_tab_ver_3.html ]
e|------------------------------------------------------------|
B|------------------------------------------------------------|
G|------------------------------------------------------------|
D|---~9-9-9-9---~7-7-7---~9-9-9-9--~7-7--12--9--7--9----------|
A|------------------------------------------------------------|
E|------------------------------------------------------------|


e|------------------------------------------------------------|
B|------------------------------------------------------------|
G|------------------------------------------------------------|
D|---12--14--12-12----12--14--12-12----12---14--12-12---------|
A|------------------------------------------------------------|
E|------------------------------------------------------------|


e|---------------------------------------------------------|2x
B|---------------------------------------------------------|
G|---------------------------------------------------------|
D|---~9-9-9-9---~7-7-7---~9-9-9-9--~7-7--12b--7-7b---------|
A|---------------------------------------------------------|
E|---------------------------------------------------------|

e|------------------------------------------------------------|
B|------------------------------------------------------------|
G|------------------------------------------------------------|
D|---~9-9-9-9---~7-7-7---~9-9-9-9--~11-11-11-11---------------|
A|------------------------------------------------------------|
E|------------------------------------------------------------|

This part is at the end of the song.

e|------------------------------------------------------------|
B|------------------------------------------------------------|
G|-14-14-14-14-14--14b--12------14-14-14-14---16--16----------|
D|------------------------------------------------------------|
A|------------------------------------------------------------|
E|------------------------------------------------------------|


Third guitatr


e|------------------------------------------------------------|
B|------------------------------------------------------------|
G|------------------------------------------------------------|
D|--/--12-----/--12-------/--4----/--4------------------------|
A|--/--14-----/--14-------/--5----/--5------------------------|
E|------------------------------------------------------------|


The first guitar is strummed at this point. Well thats pretty much it. Listen to the 
and put it in place.
Comments