Modest Mouse - All Nite Diner Chords & Tabs

 

All Nite Diner Chords & Tabs

Modest Mouse Chords & Tabs

Version: 2 Type: Tab 0 ratings
1 star 2 stars 3 stars 4 stars 5 stars
comments

All Nite Diner Tab

   
Modest Mouse - All Nite Diner
From Interstate 8 / BNooS

Tabbed by: Cory Prusha
email: interjection@gmail.com
youtube: porkstorm

There are two guitars here, the rhythm and a slide guitar. I've only tabbed the
rhythm here. These are the pieces, but arranging them is easy enough to do by ear.
I should also have a video up on my youtube channel very soon. Brackets indicate the
first time riffs are played.


 Riff 1               Riff 2
e-------------------|-------------------|
B-------------------|-------------------|
G-------------------|-/(11)---/(11)-----|
D-/9--9--x/9--9--9--|-/0--0--x/0--0--0--|
A-/10-10-x/10-10-10-|-/9--9--x/9--9--9--|
E-/10-10-x/10-10-10-|-/10-10-x/10-10-10-|
  This twice, then... this, also twice

x slides sound good coming in from any fret. Go with what's comfortable. This riff is
usually partially muted. For the ghost note, I'm only holding my pinky there. It's
only meant to make it sound better if your strum unintentially goes too far.


 Riff 3 (0:12)
e--------------------------|
B---------12+--------------|
G-----------11h12p11-11----|
D------9----------------12-|
A-x/10-10------------------|
E-x/10---------------------|
That B harmonic is vital!

 Fill 1 (0:17)  | Riff 4 (0:21)
e---------------|---------------------|
B---------------|---------------------|
G---------------|---------------------|
D------9--9--9--|-----9-------9h12-12-|
A-x/10-9--9--9--|-x/10-9--9h12--------|
E-x/10-10-10-10-|-x/10-10-------------|

 Riff 5 (0:46)                Riff 6 (0:49)
e---------------------------|---------------------------|
B---------------------------|---------------------------|
G---------------------------|---------------------------|
D-x/9--9--------------------|------9--------------------|
A-x/10-10-12-12-12-12-10-10-|-x/10-9--------------------|
E-x/10-10-------------------|-x/10-10-12-12-12-12-12-10-|
 Twice                       Also twice
[ Tab from: http://www.guitartabs.cc/tabs/m/modest_mouse/all_nite_diner_tab_ver_2.html ]
 Boring solo (2:26)
e-------------------------------------------------------------------|
B----------------------------------------------------------8h10---8-|
G-9*-9*-9*-9*-9*-9*-9*-9*-9-9-9-9-9-9-7-7-7--9-9-9-9-9-9p7------7---|
D-------------------------------------------------------------------|
A-------------------------------------------------------------------|
E-------------------------------------------------------------------|

e--------------------------------------------------------------------------------------|
B--------------------------------------------------------------------------------------|
G-9-9-9-9-9-9-7-7-7--9-9-9-9-9-9/12-12-12-12--9-9-9-9-9-9-7~-9-9-9-9-9-7-7-7-7-7-7-9-7-|
D--------------------------------------------------------------------------------------|
A--------------------------------------------------------------------------------------|
E--------------------------------------------------------------------------------------|

e-----------------------------------------------------------------------|
B-----10---8-10---8-10---8-10---8-10---8-10---8-10---8-10---8-10---8-10-|
G-7-7----7-7----7-7----7-7----7-7----7-7----7-7----7-7----7-7----7-7----|
D-----------------------------------------------------------------------|
A-----------------------------------------------------------------------|
E-----------------------------------------------------------------------|

e-------------------------------------|
B-------------------------------------|
G-9-9-9-9-9-9-7~~--9-9-9-9-9-9-7-11-9-|
D-------------------------------------|
A-------------------------------------|
E-------------------------------------|


 Riff 7 (3:45)
e--------------------------------------------|
B--------10-10-10-10-10----10-10-10-10-12-12-|
G--------9--9--9--9--9-----9--9--9--9--9--9--|
D-9--9---0--0--0--0--0-----0--0--0--0--0--0--|
A-10-10--------------------------------------|
E-10-10--------------------------------------|
Comments