Modest Mouse - All Night Diner Chords & Tabs

 

All Night Diner Chords & Tabs

Modest Mouse Chords & Tabs

Version: 1 Type: Tab 0 ratings
1 star 2 stars 3 stars 4 stars 5 stars
comments

All Night Diner Tab

                            intro
-----------------------------------------------------------------'
-----------------------------------------------------------------'
-----------------------------------------------------------------'
--2/--6-6-6---6-6-6----2/-6-6-6---6-6-6--------------------------'
--3/--7-7-7---7-7-7----3/-7-7-7---7-7-7----1/---4-4-4--4-4-4-----'
-------------------------------------------2/---5-5-5--5-5-5-----'

continued from the top

---------------------'
---------------------'
---------------------'
---------------------'
--1/--4-4-4---4-4-4--'
--2/--5-5-5---5-5-5--'


Yeah,yes,yes,have i told ya,have i told ya
---------------------------------------------'
---------------------------------------------'
---------------------------------------------'
-2/---6-6-6---6-6-6---2/-6-6-6----6-6-6-x-x--'
-3/---7-7-7---7-7-7---3/-7-7-7----7-7-7-x-x--'
---------------------------------------------'


You could really get it on,You could really get it on
-----------------------------------------------------'
-----------------------------------------------------'
-----------------------------------------------------'
-----------------------------------------------------'
-1/--4-4-4-----4--4--4--x-x--1/-4-4-4---4--4--4-x-x--'
-2/--5-5-5-----5--5--5--x-x--2/-5-5-5---5--5--5-x-x--'

Yeah,yes,yes,have i told ya,have i told ya
---------------------------------------------'
---------------------------------------------'
---------------------------------------------'
-2/---6-6-6---6-6-6---2/-6-6-6----6-6-6-x-x--'
-3/---7-7-7---7-7-7---3/-7-7-7----7-7-7-x-x--'
---------------------------------------------'


You could really get it on,You could really get it on
-----------------------------------------------------'
-----------------------------------------------------'
-----------------------------------------------------'
-----------------------------------------------------'
-1/--4-4-4-----4--4--4--x-x--1/-4-4-4---4--4--4-x-x--'
-2/--5-5-5-----5--5--5--x-x--2/-5-5-5---5--5--5-x-x--'

I was at an all night diner,The sign said, "Triple X"
---------------------------------------------'
---------------------------------------------'
---------------------------------------------'
-2/---6-6-6---6-6-6---2/-6-6-6----6-6-6-x-x--'
-3/---7-7-7---7-7-7---3/-7-7-7----7-7-7-x-x--'
---------------------------------------------'

[ Tab from: http://www.guitartabs.cc/tabs/m/modest_mouse/all_night_diner_tab.html ]
they were talking about root beer,I'm just sitting down,
-------------------------------------------------------'
-------------------------------------------------------'
-------------------------------------------------------'
-------------------------------------------------------'
-1/--4--4--4-----4--4--4--x-x--1/-4-4-4---4--4--4-x-x--'
-2/--5--5--5-----5--5--5--x-x--2/-5-5-5---5--5--5-x-x--'

Thinking about nothing,Looking at the thin air
---------------------------------------------'
---------------------------------------------'
---------------------------------------------'
-2/---6-6-6---6-6-6---2/-6-6-6----6-6-6-x-x--'
-3/---7-7-7---7-7-7---3/-7-7-7----7-7-7-x-x--'
---------------------------------------------'

Breathing up the oxygen        Have I told ya,
-------------------------------------------------------'
-------------------------------------------------------'
-------------------------------------------------------'
-------------------------------------------------------'
-1/--4--4--4-----4--4--4--x-x--1/-4-4-4---4--4--4-x-x--'
-2/--5--5--5-----5--5--5--x-x--2/-5-5-5---5--5--5-x-x--'


Have I told ya,You could really get it on?
---------------------------------------------'
---------------------------------------------'
---------------------------------------------'
-2/---6-6-6---6-6-6---2/-6-6-6----6-6-6-x-x--'
-3/---7-7-7---7-7-7---3/-7-7-7----7-7-7-x-x--'
---------------------------------------------'

You could really get it on?  Have I told ya
-------------------------------------------------------'
-------------------------------------------------------'
-------------------------------------------------------'
-------------------------------------------------------'
-1/--4--4--4-----4--4--4--x-x--1/-4-4-4---4--4--4-x-x--'
-2/--5--5--5-----5--5--5--x-x--2/-5-5-5---5--5--5-x-x--'

and thats about it just repeat and
every now and then throw this in
----7-7-------------------------'
--7-----7/5-5----5--------------'
--x-----------5----6/4----------'
--6-----------x-----------------'
--7-----------4-----------------'
--------------5-----------------'

for any questions send 'em to
bobbytabasco@yahoo.com


A guy comes up, looking pretty 8-ball
Snaggletooth smile, sits down at my table
Puts his arm around me, starts to share his information
He said, he said, he said [x4] this is what he said
"I have sex, I'm always thinking about the pavement
So I can avoid premature ejaculation"
I got up, remembering to thank him
Better things to do so I'll start drinking
I'm in Tahoka, now I'm gonna hook up
With the parties, unfortunately
No one has any ideas, damn
Have I told ya
You could really get it on?
Comments