Modest Mouse - A Life Of Arctic Sounds Chords & Tabs

 

A Life Of Arctic Sounds Chords & Tabs

Modest Mouse Chords & Tabs

Version: 1 Type: Tab 0 ratings
1 star 2 stars 3 stars 4 stars 5 stars
comments

A Life Of Arctic Sounds Tab

A LIFE OF ARCTIC SOUNDS
by Modest Mouse

Tab by Devin Miller
(irish__nugget@hotmail.com)

Tuning: Standard EADGBe

Legend:
| s  slide down
| p  pull-off
| +  natural harmonic
| x  dead note

Most of the song is palm-muted, or somewhat palm-muted.

-----------------INTRO-----------------

e|-----------------------------------|
B|-----------------------------------|
G|-----------------------------------|
D|--s7-----7-7-7-7--4-----4-----4----|
A|--s7-----7-7-7-7--5-5-5-5-5-5-5-0--|
E|--s5-----5-5-5-5-------------------|

-----------------TRANSITION-----------------

e|-----------------|
B|-----------------|
G|-----------------|
D|----4-0---4-0----|
A|--5-----5-----0--|
E|-----------------|

-----------------BRIDGE-----------------

e|----------------------------|
B|----------------------------|
G|----------------------------|
D|--s7----4------2-0---2-0----|
A|--s7----5----4-----4-----0--|
E|--s5------------------------|

-----------------VERSE-----------------

e|----------------------------------|
B|----------------------------------|
G|----------------------------------|
D|----9-0---9-0---0-----0-----0-----|
A|--7-----7-----7-----7-----7---0---|
E|------------------9-----9---------|

(Variation)
e|----------------------------------------|
B|----------------------------------------|
G|----------------------------------------|
D|----9-0---9p0---9-0-------0-----0-------|
A|--7-----7-----7-------7h0---7h0---7-0---|
E|--------------------9-------------------|
[ Tab from: http://www.guitartabs.cc/tabs/m/modest_mouse/a_life_of_arctic_sounds_tab.html ]
Guitar 2 during Verse:
e|--------------------------------|
B|--------------------------------|
G|--9--9--9--9--9--9-11--11--11---|
D|--x--x--x--x--x--x-x---x---x----|
A|--7--7--7--7--7--7-9---9---9----|
E|--------------------------------|

-----------------CHORUS-----------------

e|--------------------------------------------------------------|
B|--------------------------------------------------------------|
G|--11--x-x-11--x-11--11--x-11--x-x-9--x-x-9--x-9--9--x-9--x-x--|
D|--x---x-x-x---x-x---x---x-x---x-x-x--x-x-x--x-x--x--x-x--x-x--|
A|--9---x-x-9---x-9---9---x-9---x-x-7--x-x-7--x-7--7--x-7--x-x--|
E|--------------------------------------------------------------|

Guitar 2:
e|------------------------------------|
B|------------------------------------|
G|--7--9------------------------------|
D|--------9-7-9-7-----9--7------------|
A|--------------------------9-7-9-7---|
E|------------------------------------|

-----------------OUTRO ("I..MIGHT...BE...")-----------------

e|-------------------------------------------10+--------
B|-------------------------------------------10+--10+---
G|--11--x-x-x--x-x--x--x---------------------10+--10+---
D|--x---x-x-x--x-x--x--x--11--x-x-x--x-x--x--10+--10+---
A|--9---x-x-x--x-x--x--x--x---x-x-x--x-x--x--10+--10+---
E|------------------------9---x-x-x--x-x--x-------------

  ------------------------------------------------------|
  ------------------------------------------------------|
  --11--x-x-x--x-x--x--4+-3+---6------------------------|
  --x---x-x-x--x-x--x--4+-3+---x------------------------|
  --9---x-x-x--x-x--x--4+-3+---4------------------------|
  ------------------------------------------------------|


e-mail if you got any questions about 'er.

=========================================================================
Comments