Modest Mouse - 3rd Planet Chords & Tabs

 

3rd Planet Chords & Tabs

Modest Mouse Chords & Tabs

Version: 9 Type: Tab 0 ratings
1 star 2 stars 3 stars 4 stars 5 stars
comments

3rd Planet Tab

   
----------------------------------------------------------------------------
			 3RD PLANET - modest mouse
----------------------------------------------------------------------------
Tabbed by: devin miller
Email: irish__nugget@hotmail.com

Tuning: Standard EADGBe

There are two guitars overlapped in this song, and along with that, a lap
steel guitar.  
two main guitars are a steel acoustic and a solid electric.  This is how I would play 
acoustic part of the song (the electric is nearly identical, just played on a different fret):

-------------------------INTRO-------------------------

e|--------------------------------------|
B|--0---3---0---3---0---3---0h1p0h1...--|
G|----0---0---0---0---0---0-------------|
D|--------------------------------------|
A|--------------------------------------|
E|--------------------------------------| x1

e|------------------------------------------3--|
B|--0---0h1-1p0-0---0h1-1p0-0---0h1-1p0-0------|
G|----0-----------0-----------0-----------0----|
D|---------------------------------------------|
A|---------------------------------------------|
E|---------------------------------------------| x2


-------------------------VERSE 1-------------------------

e|----------------------------------------------|
B|--0---3---0---3---0---3---0---3---0h1p0h1...--|
G|----0---0---0---0---0---0---0---0-------------|
D|----------------------------------------------|
A|----------------------------------------------|
E|----------------------------------------------| x2

e|----------------------------------------------------------------------|
B|--0---3---0---3---0---3---0---3---0---3---0---3---0---3---0h1p0h1...--|
G|----0---0---0---0---0---0---0---0---0---0---0---0---0---0-------------|
D|----------------------------------------------------------------------|
A|----------------------------------------------------------------------|
E|----------------------------------------------------------------------| x1


-------------------------CHORUS-------------------------

    Gadd9      Dsus4       C
e|--5-5-5-5-5--5-5-5-5-5---3-3-3-3-3--3-3-3-3-3--|
B|--0-0-0-0-0--3-3-3-3-3---1-1-1-1-1--1-1-1-1-1--|
G|--0-0-0-0-0--2-2-2-2-2---0-0-0-0-0--0-0-0-0-0--|
D|--0-0-0-0-0--0-0-0-0-0---2-2-2-2-2--2-2-2-2-2--|
A|-----------------------------------------------|
E|-----------------------------------------------| x7


-------------------------VERSE 2-------------------------
[ Tab from: http://www.guitartabs.cc/tabs/m/modest_mouse/3rd_planet_tab_ver_9.html ]
e|------3---------------------------------|
B|----0---0------------------------0h1p0--|
G|--0---------------------0---------------|
D|----------0-4h5-------2---2---2---------|
A|----------------7-5\2-------3-----------|
E|----------------------------------------| x8

-------------------------INTRO CHORUS-------------------------

Strum these chords according to good sound...

     G     D     C
e|---3---------------|
B|---0-----3-----1---|
G|---0-----2-----0---|
D|---0-----0-----2---|
A|---2-----0-----3---|
E|---3-----2---------| x3

For the second time around on this, add your pinkie to 3 on the C to get that high 
 On the third time round, add your pinkie to 5 on the G, then to 3 again on the C.  That 
you the similar sound isaac gets in the song.

example:

   G add 9    C
e|---5--------3---|
B|---0--------1---|
G|---0--------0---|
D|---0--------2---|
A|---2--------3---|
E|---3------------|

-------------------------CHORUS-------------------------

Strum the D sus 4 in a good sounding way, then vigorously strum the C.

  D sus 4      C
e|---5---------3---|
B|---3---------1---|
G|---2---------0---|
D|---0---------2---|
A|-----------------|
E|-----------------| x4

-------------------------VERSE 3-------------------------

e|------3--------------------------------|
B|----0---0-----------------------0h1p0--|
G|--0---------------------0--------------|
D|----------0-4h5-------2---2---2--------|
A|----------------7-5\2-------3----------|
E|---------------------------------------| x8

If it fetishes you, you can change it a tiny bit here in the last 3 rounds...:

e|------3--------------------------------|
B|----0---0-----------------------0h1p0--|
G|--0---------------------0--------------|
D|----------0-4h5-----2-2---2-2-2--------|
A|----------------7-5--------------------|
E|---------------------------------------|

-------------------------INTERLUDE-------------------------

e|--------------------------------------|
B|--0---3---0---3---0---3---0h1p0h1...--|
G|----0---0---0---0---0---0-------------|
D|--------------------------------------|
A|--------------------------------------|
E|--------------------------------------| x1

-------------------------OUTRO-------------------------

e|----------------------------------------------|
B|--0---3---0---3---0---3---0---3---0h1p0h1...--|
G|----0---0---0---0---0---0---0---0-------------|
D|----------------------------------------------|
A|----------------------------------------------|
E|----------------------------------------------| x1


| /  slide up
| \  slide down
| h  hammer-on
| p  pull-off
| ~  vibrato
| +  harmonic
| x  Mute note
============================================================================
Comments