Modest Mouse - 3rd Planet Chords & Tabs

 

3rd Planet Chords & Tabs

Modest Mouse Chords & Tabs

Version: 8 Type: Tab 0 ratings
1 star 2 stars 3 stars 4 stars 5 stars
comments

3rd Planet Tab

intro and verse
-------------------------------------------------------------------|
-------------------------------------------------------------------|
-------------------------------------------------------------------|
---9------12------9------12------9------12-----9h10p9h10p9---------|
------10------10-----10------10-----10------10---------------------|
-------------------------------------------------------------------|
this^is also the part in the verse where he sings "everything that keeps me together..."

--------------------------------------------------------------------|
--------------------------------------------------------------------|
-----------------------------------------------------------------12-|
---9------9h10--10p9--9------9h10-10p9--9------9h10-10p9--9---------|
------10-----------------10----------------10----------------10-----|
--------------------------------------------------------------------|
--------------------------------------------------------------------|

----------------------------------------------------------------------|
----------------------------------------------------------------------|
----------------------------------------------------------------------|
---9------12------9------12------9------12------9------12------12-----|x1
------10------10-----10------10-----10------10-----10------10---------|
----------------------------------------------------------------------|
(when you get to teh promised land ya gonna shake taht eyes hand)
[ Tab from: http://www.guitartabs.cc/tabs/m/modest_mouse/3rd_planet_tab_ver_8.html ]
chorus
jsut kinda listen to the song and you could figure it out if im wrong but in concert i 
like he does play these 3 chords the second one is supposed to sound pretty much just 
the first one.
--------------------------------------------------------------------|
---10------------10------------8------8-----------------------------|
----0-x5----------0-x5---------0-x5---0-x5--------------------------|
----9-------------x------------x------x-----------------------------|
---10-------------9------------7------7-----------------------------|
-----------------10------------8------8-----------------------------|

other verse
--------------------------------------------------------------------|
--------------------------------------------------------------------|
-----12-------------------------------------------------------------|
----9--9--------------------------------9h10p9----------------------|
--10---------9h10p9--------7-10-7----7------------------------------|
----------10--------10/8-8---------8--------------------------------|


the chors played after the bit above is the same chords as before onlyt hrye played 
listen to teh sogn adn get teh strumming pattern.
and sometimes its played liek thsi
other chorus
---------------------------------------------------------------------|
---10--10--10----10--10--10----8--8----8--8--8-----------------------|
----0---0---0-x3--0---0---0-x3-0--0-x3-0--0--0-----------------------|
----9---9---9-----x---x---x----x--x----x--x--x-----------------------|
---10--10--10-----9---9---9----7--7----7--7--7-----------------------|
-----------------10--10--10----8--8----8--8--8-----------------------|

song structure
intro
verse
chorus
other verse
other chorus
verse
Comments