Modest Mouse - 3rd Planet Chords & Tabs

 

3rd Planet Chords & Tabs

Modest Mouse Chords & Tabs

Version: 7 Type: Tab 0 ratings
1 star 2 stars 3 stars 4 stars 5 stars
comments

3rd Planet Tab

verse
-------------------------------------------------------------------|
-------------------------------------------------------------------|
-------------------------------------------------------------------|
---9------12------9------12------9------12-----9h10p9h10p9---------|
------10------10-----10------10-----10------10---------------------|
-------------------------------------------------------------------|


--------------------------------------------------------------------|
--------------------------------------------------------------------|
-----------------------------------------------------------------12-|
---9------9h10--10p9--9------9h10-10p9--9------9h10-10p9--9---------|
------10-----------------10----------------10----------------10-----|
--------------------------------------------------------------------|
and so on....

chorus
[ Tab from: http://www.guitartabs.cc/tabs/m/modest_mouse/3rd_planet_tab_ver_7.html ]
strumming pattern is easy
--------------------------------------------------------------------|
---10------------10------------8------------------------------------|
--------------------------------------------------------------------|
----9---------------------------------------------------------------|
---10-------------9------------7------------------------------------|
-----------------10------------8------------------------------------|

other riff
--------------------------------------------------------------------|
--------------------------------------------------------------------|
-----12-------------------------------------------------------------|
----9--9--------------------------------9h10p9----------------------|
--10---------9h10p9--------7-10-7----7------------------------------|
----------10--------10---7---------8--------------------------------|
Comments