Modest Mouse - 3rd Planet Chords & Tabs

 

3rd Planet Chords & Tabs

Modest Mouse Chords & Tabs

Version: 5 Type: Tab 0 ratings
1 star 2 stars 3 stars 4 stars 5 stars
comments

3rd Planet Tab

Tabbed By:Heath Norris
Email: HeathN311@aol.com
Tuning: Standard 

e---------------------------------------------------------------------------
B---------------------------------------------------------------------------
G---------------------------------------------------------------------------
D---5------8------9------12------9------12------9h10p9h10p9-----------------
A-------6------6------6------6------6-------6-------------------------------
E---------------------------------------------------------------------------

[ Tab from: http://www.guitartabs.cc/tabs/m/modest_mouse/3rd_planet_tab_ver_5.html ]
e---------------------------------------------------------------------------
B------------------------------------------------------------------------8--
G---------------------------------------------------------------------------
D---9----9h10--10p9---9-----9h10--10p9--9----9h10--10p9--9------------------
A------6----------------------6--------------------------6--------6---------
E---------------------------------------------------------------------------


e---------------------------------------------------------------------------
B---------------------------------------------------------------------------
G--------8------------------------------------------------------------------
D-----5-----5---------------------------------------------5h6p9-------------
A--6---------------5h6p5---------------7--9--7-----7------------------------
E--------------6----------6/4--4------------------8-------------------------


e---------------------------------------------------------------------------
B---------------------------------------------------------------------------
G-10 10 10 10 10--------8 8 8 8 8 ------------------------------------------
D--x--x--x--x--x---x----2x-x--x--x---x---x----------------------------------
A--8  8  8  8  8 ------10 10 10 10 10---------------------------------------
E---------------------------------------------------------------------------


h-Hammer On
p-Pull-Off
x-Mute Note
Comments