Modest Mouse - 3rd Planet Chords & Tabs

 

3rd Planet Chords & Tabs

Modest Mouse Chords & Tabs

Version: 4 Type: Tab 0 ratings
1 star 2 stars 3 stars 4 stars 5 stars
comments

3rd Planet Tab

   
this is what i think it is....

Tabbed by: Ben Johnson
Email: Wylde67@aol.com

Tuning: Standard

1
e---------------------------------------------------------------------------------|
B---------------------------------------------------------------------------------|
G---------------------------------------------------------------------------------|
D---9------12-----9-------12------9------12------9h10p9h10p9----------------------|
A------10-----10-----10-------10-----10------10-----------------------------------|
E---------------------------------------------------------------------------------|

2

e---------------------------------------------------------------------------------------|
B---------------------------------------------------------------------------------------|
G----------------------------------------------------------- -----------------------12--|
D---9----9h10--10p9---9-----9h10--10p9--9----9h10--10p9--9------------------------------|
A------10---------------------10------------------------10-----------------10-----------|
E---------------------------------------------------------------------------------------|
[ Tab from: http://www.guitartabs.cc/tabs/m/modest_mouse/3rd_planet_tab_ver_4.html ]
during verse 2:

e------------------------------------------------------------------------------|
B------------------------------------------------------------------------------|
G---------12-------------------------------------------------------------------|
D------9------9--------------------------------------------9h10p9--------------|
A--10----------------9h10p9-----------7--9--7-----7----------------------------|
E----------------10----------10/8--8-------------8-----------------------------|

Chorus-guitar 1
e|-----------------------------------------------------------------------------|
B|-----------------------------------------------------------------------------|
G|-14 14 14-14 14--------12 12 12 12 12 ---------------------------------------|
D|--x--x--x--x--x---x-----2x--x----x---x---x---x-------------------------------|
A|-12 12 12 12 12--------10 10 10 10 10----------------------------------------|
E|-----------------------------------------------------------------------------|
guitar 2
chords: GGGGG DDDDD CCCCC CCCCC


| /  slide up
| \  slide down
| h  hammer-on
| p  pull-off
| ~  vibrato
| +  harmonic
| x  Mute note
Comments