Modest Mouse - 3 Inch Horses Two-faced Monsters Chords & Tabs

 

3 Inch Horses Two-faced Monsters Chords & Tabs

Modest Mouse Chords & Tabs

Version: 1 Type: Tab 0 ratings
1 star 2 stars 3 stars 4 stars 5 stars
comments

3 Inch Horses Two-faced Monsters Tab

Here's another song I'm hosting, since it's not posted or anything. 

Tuning: Standard (eBGDAE) & Open G (dBGDGD)

(Rhythm Guitar)
e|--x--|
B|--3--|
G|--0--|
D|--0--|
A|--2--|
E|--3--|

(Rhythm Guitar Fill)
e|-----------|
B|-----------|
G|-----------|
D|-----------|
A|-0h2-2p0---|
E|---------3-|

(Common Fill)
d|------------------|
B|------------------|
G|-3b4--3b4--3b4--0-|
D|------------------|
G|------------------|
D|------------------|

(Common Fill)
d|------------|
B|------------|
G|------------|
D|-0--/3--0---|
G|-0--/3--0---|
D|------------|

(Common Fill)
d|------------|
B|------------|
G|-/12-12-12\-|
D|-/12-12-12\-|
G|------------|
D|------------|

(Slide Guitar Fill)
d|-----------------------|
B|-----------------------|
G|-----------3/4---------|
D|-0--/3--0------5-3-5---|
G|-0--/3--0--------------|
D|-----------------------|
[ Tab from: http://www.guitartabs.cc/tabs/m/modest_mouse/3_inch_horses_two_faced_monsters_tab.html ]
(Slide Fill)
d|---------------------|
B|---------------------|
G|-3p0---3-------------|
D|-----3----0--/3--0---|
G|----------0--/3--0---|
D|---------------------|

(Outro Fill)
d|--------------------------------------------------------------------|
B|--------------------------------------------------------------------|
G|-4p2-4p2-4p2-5p4-7p4-5p4-7p4-7p4-9p7-9p7-9p7-11p9-12p9-12p9-/12-12--|
D|--------------------------------------------------------------------|
G|--------------------------------------------------------------------|
D|--------------------------------------------------------------------|
NOTE: Greatly varried on.

(Outro Fill)
d|--9-7-------|
B|------8-----|
G|------------|
D|------------|
G|------------|
D|------------|

(Outro Slide 
d|-------------|
B|--------4----|
G|-3/4--4------|
D|-------------|
G|-------------|
D|-------------|

It's a pretty cool song if I do say so myself . . . 
Comments