Moderatto - Vivir De Noche Chords & Tabs

 

Vivir De Noche Chords & Tabs

Moderatto Chords & Tabs

Version: 1 Type: Tab 0 ratings
1 star 2 stars 3 stars 4 stars 5 stars
comments

Vivir De Noche Tab

MODERATTO
VIVIR DE NOCHE

MUY BUENA ROLA ESTA DE BOLAS CHEKENLA, KE EL ROKC NO MUERA

 asi que ahi les va:
nota:a las cuerdas 3,4,5y6 seles baja un tono. 

intro:
1|--------------------------|         |----------------------|
2|---4---4---4-4-4----------|         |---4---4---4-4-4------|
3|---4---4---4-4-4----------|         |---4---4---4-4-4------|
4|---2-x-2---2-2-2----------| x3      |---2-x-2---2-2-2------|
5|--------------------------|         |----------------------|
6|-------------------3p2-0--|         |----------------------|

|-------------------------------------------------------------|
|-------------------------------------------------------------|
|----------------------------2-2-2-2-2----4-4-4-4-4-----------|
|--2-2-2-2-2----5-5-5-5-5----2-2-2-2-2----4-4-4-4-4-----------|
|--2-2-2-2-2----5-5-5-5-5----0-0-0-0-0----2-2-2-2-2-----------|
|--0-0-0-0-0----3-3-3-3-3-------------------------------3p2---|

|--------------------------------------------------------------------------------------------------|
|--------------------------------------------------------------------------------------------------|
|----------------------------2-2-2-2-2----4-4-4-4-4----4-4-4-4-4----4-4-4-4-4----4-4-4-4-4---------|
|--2-2-2-2-2----5-5-5-5-5----2-2-2-2-2----4-4-4-4-4----4-4-4-4-4----4-4-4-4-4----4-4-4-4-4---------|
|--2-2-2-2-2----5-5-5-5-5----0-0-0-0-0----2-2-2-2-2----2-2-2-2-2----2-2-2-2-2----2-2-2-2-2---------|
|--0-0-0-0-0----3-3-3-3-3-------------------------------------------------------------------3-2-0--|

|--------------------------|         |----------------------|
|---4---4---4-4-4----------|         |---4---4---4-4-4------|
|---4---4---4-4-4----------|         |---4---4---4-4-4------|
|---2-x-2---2-2-2----------|         |---2-x-2---2-2-2------|
|--------------------------|         |----------------------|
|-------------------3p2-0--|         |----------------------|
[ Tab from: http://www.guitartabs.cc/tabs/m/moderatto/vivir_de_noche_tab.html ]
versos:
|----------------------------------------------------------------|
|----------------------------------------------------------------|
|-----------------4-4-....----------4-----4-----4---4-----4------|
|-2-2-....--------4-4-....----------4-----4-----4---4-----4------|
|-2-2-....--------2-2-....----------2-x-x-2-x-x-2-x-2-x-x-2------|
|-0-0-....-------------------------------------------------------|
|.....esto se con pm......|
 en esta vida...

|---------------------------------------------------------------------------|
|---------------------------------------------------------------------------|
|--4-4-....-----------------------------------------------------------------|
|--4-4-....---------------2-2-2---------2-2-2---------2-2-2---------2-2-2---|
|--2-2-....---------------2-2-2---------2-2-2---------2-2-2---------2-2-2---|
|-------------------------0-0-0-3p2-0---0-0-0-3p2-0---0-0-0-3p2-0---0-0-0---|
 si ustedes gustan.....   de noche......

|----------------------------------------------------------------|                |
|----------------------------------------------------------------|                |
|-----------------4-4-....----------4-----4-----4---4-----4------|                |
|-2-2-....--------4-4-....----------4-----4-----4---4-----4------|                |
|-2-2-....--------2-2-....----------2-x-x-2-x-x-2-x-2-x-x-2------|                |
|-0-0-....-------------------------------------------------------|                |
|.....esto se con pm......|                                                       |
                                                                                  | x2
|---------------------------------------------------------------------------|     |
|---------------------------------------------------------------------------|     |
|--4-4-....-----------------------------------------------------------------|     |
|--4-4-....---------------2-2-2---------2-2-2---------2-2-2---------2-2-2---|     |
|--2-2-....---------------2-2-2---------2-2-2---------2-2-2---------2-2-2---|     |
|-------------------------0-0-0-3p2-0---0-0-0-3p2-0---0-0-0-3p2-0---0-0-0---|     |

coro:
|-------------------------|    |--------------------------------------------|
|-------------------------|    |--------------------------------------------|
|--------4---2------------|    |--4--4---4-4-4-4-4----44444444444......-----|
|--------4---2---2-2------| x3 |--4--4---4-4-4-4-4----44444444444......-----|
|--x-x-x-2---0---2-2------|    |--2--2---2-2-2-2-2----22222222222......-----|
|----------------0-0------|    |--------------------------------------------|



ESTA ES LA ROLA ESTA DE HUEVOS NO ES COMPLIKADA, ES PARA TODO EL MODERATTO_ARMY, Y COMO
SIEMPRE PARA MIS CUATES MAYA,MARIO,SERGIO,MARKO Y EL
BUEN FERCHO.....EDGAR AMADHEUS.
Comments