Moderatto - Marchate Ya Chords & Tabs

 

Marchate Ya Chords & Tabs

Moderatto Chords & Tabs

Version: 2 Type: Tab 0 ratings
1 star 2 stars 3 stars 4 stars 5 stars
comments

Marchate Ya Tab

   
dudas o sugerencias mandame un mail: aldonas_del@yahoo.com.mx

[intro]

e|-----------------------------------------------------------|
B|-----------------------------------------------------------|
G|--------9--9-----6-----7--7/9/7-----9--9/5--5-----5-----5--|  x 4
D|--------9—-9-----6-----7--7/9/7-----9--9/5--5-----5-----5--|
A|--------7—-7-----4-----5--5/7/5-----7--7/3--3-----3-----3--|
E|----0-0------0-0---0-0----------0-0-----------0-0---0-0----|
 P.M. |-|      |-|   |-|          |-|           |-|   |-|

[/intro]


[verso]

e|-------------------------------------|      |---------|
B|-------------------------------------|      |---------|
G|----------------------------5-5-5/7--| x 3  |--7---5--|
D|----------------------------5-5-5/7--|      |--7---5--|
A|----------------------------3-3-3/5--|      |--5---3--|
E|----0-0-0-0-0-0-0-0-0-0-0-0----------|      |---------|
 P.M. |---------------------|


Quién inventó el despertador
Jamás funciona el ascensor
Pasa de largo el autobús
Aquí estoy yo y aquí estás tú.

[/verso]

[coro]

¡No puedo!

e|-----------------------------------------------------------|
B|-----------------------------------------------------------|
G|--------9--9-----6-----7--7/9/7-----9--9/5--5-----5-----5--|  x 2
D|--------9—-9-----6-----7--7/9/7-----9--9/5--5-----5-----5--|
A|--------7—-7-----4-----5--5/7/5-----7--7/3--3-----3-----3--|
E|----0-0------0-0---0-0----------0-0-----------0-0---0-0----|
 P.M. |-|      |-|   |-|          |-|           |-|   |-|

[/coro]

[verso]

e|-------------------------------------|      |---------|
B|-------------------------------------|      |---------|
G|----------------------------5-5-5/7--| x 3  |--7---5--|
D|----------------------------5-5-5/7--|      |--7---5--|
A|----------------------------3-3-3/5--|      |--5---3--|
E|----0-0-0-0-0-0-0-0-0-0-0-0----------|      |---------|
 P.M. |---------------------|


Buenos días, ¿cómo estás?
Respuesta ok, comme sí comme ça
Come hamburguesa, bebe anís
Consumidor qué caro anís.

[/verso]

[coro]

¡No puedo!

Tututu...
¡Márchate, márchate ya!

Tututu...
¡Márchate, márchate ya!

e|-----------------------------------------------------------|
B|-----------------------------------------------------------|
G|--------9--9-----6-----7--7/9/7-----9--9/5--5-----5-----5--|  x 2
D|--------9—-9-----6-----7--7/9/7-----9--9/5--5-----5-----5--|
A|--------7—-7-----4-----5--5/7/5-----7--7/3--3-----3-----3--|
E|----0-0------0-0---0-0----------0-0-----------0-0---0-0----|
 P.M. |-|      |-|   |-|          |-|           |-|   |-|

e|----------------------------------------------------|
B|------8-6----8-6----8-6---------8-6----8-6----------|
G|--7~------6~-----5~-----4~~--7~-----6~-----5~~--4~~-|
D|----------------------------------------------------|
A|----------------------------------------------------|
E|----------------------------------------------------|


e|---------------------------------------------------------|
B|---------------------------------------------------------|
G|--------9--9-----6-----7--7/9/7-----9--9-----------------|
D|--------9—-9-----6-----7--7/9/7-----9--9-----------------|
A|--------7—-7-----4-----5--5/7/5-----7--7-----------------|
E|----0-0------0-0---0-0----------0-0------3-3-5-5-6-6-7-7-|
 P.M. |-|      |-|   |-|          |-|

e|---------------------------------------------------------|
B|---------------------------------------------------------|
G|--------9--9-----6-----7--7/9/7-----9--9--5-----5-----5--|
D|--------9—-9-----6-----7--7/9/7-----9--9--5-----5-----5--|
A|--------7—-7-----4-----5--5/7/5-----7--7--3-----3-----3--|
E|----0-0------0-0---0-0----------0-0---------0-0---0-0----|
 P.M. |-|      |-|   |-|          |-|         |-|   |-|


Tututu...
¡Márchate, márchate ya!

Tututu...
¡Márchate, márchate ya!

e|-----------------------------------------------------------|
B|-----------------------------------------------------------|
G|--------9--9-----6-----7--7/9/7-----9--9/5--5-----5-----5--|  x 2
D|--------9—-9-----6-----7--7/9/7-----9--9/5--5-----5-----5--|
A|--------7—-7-----4-----5--5/7/5-----7--7/3--3-----3-----3--|
E|----0-0------0-0---0-0----------0-0-----------0-0---0-0----|
 P.M. |-|      |-|   |-|          |-|           |-|   |-|

[/coro]

[verso]

e|-------------------------------------|      |---------|
B|-------------------------------------|      |---------|
G|----------------------------5-5-5/7--| x 3  |--7---5--|
D|----------------------------5-5-5/7--|      |--7---5--|
A|----------------------------3-3-3/5--|      |--5---3--|
E|----0-0-0-0-0-0-0-0-0-0-0-0----------|      |---------|
 P.M. |---------------------|

Prohibido el paso, precaución
El disco rojo, frena, stop
Tres tristes tigres y un trigal
Ruge la jungla de metal.

[/verso]

[coro]

¡No puedo!

Tututu...
¡Márchate, márchate ya!

Tututu...
¡Márchate, márchate ya!

e|-----------------------------------------------------------|
B|-----------------------------------------------------------|
G|--------9--9-----6-----7--7/9/7-----9--9/5--5-----5-----5--|  x 2
D|--------9—-9-----6-----7--7/9/7-----9--9/5--5-----5-----5--|
A|--------7—-7-----4-----5--5/7/5-----7--7/3--3-----3-----3--|
E|----0-0------0-0---0-0----------0-0-----------0-0---0-0----|
 P.M. |-|      |-|   |-|          |-|           |-|   |-|

e|-----------------------------|
B|------8-6----8-6----8-6------|
G|--7~------6~-----5~-----4~~--| x 2
D|-----------------------------|
A|-----------------------------|
E|-----------------------------|

e|---------------------------------------------------------|
B|---------------------------------------------------------|
G|--------9--9-----6-----7--7/9/7-----9--9-----------------|
D|--------9—-9-----6-----7--7/9/7-----9--9-----------------|
A|--------7—-7-----4-----5--5/7/5-----7--7-----------------|
E|----0-0------0-0---0-0----------0-0------3-3-5-5-6-6-7-7-|
 P.M. |-|      |-|   |-|          |-|
[ Tab from: http://www.guitartabs.cc/tabs/m/moderatto/marchate_ya_tab_ver_2.html ]
e|---------------------------------------------------------|
B|---------------------------------------------------------|
G|--------9--9-----6-----7--7/9/7-----9--9--5-----5-----5--|
D|--------9—-9-----6-----7--7/9/7-----9--9--5-----5-----5--|
A|--------7—-7-----4-----5--5/7/5-----7--7--3-----3-----3--|
E|----0-0------0-0---0-0----------0-0---------0-0---0-0----|
 P.M. |-|      |-|   |-|          |-|         |-|   |-|


[/coro]

[solo really fast]

e|--------------------------------------------------------10-13-12-|
B|--15^~---13^~--15-12^---15-17-15^-17-15^-17-15^-17-15^-----------|
G|-----------------------------------------------------------------|
D|-----------------------------------------------------------------|
A|-----------------------------------------------------------------|
E|-----------------------------------------------------------------|

e|-10-13-12-10-13-12-10-13-12-10-13-12^--12-12-12-12-12--13-13-13-13-13-|
B|----------------------------------------------------------------------|
G|----------------------------------------------------------------------|
D|----------------------------------------------------------------------|
A|----------------------------------------------------------------------|
E|----------------------------------------------------------------------|

e|-13-14-15-13-14-15-14-15-16-14-15-16-14-15-16-14-15-16-14-15-16-|
B|----------------------------------------------------------------|
G|----------------------------------------------------------------|
D|----------------------------------------------------------------|
A|----------------------------------------------------------------|
E|----------------------------------------------------------------|

e|-16-16-16-16-16-16-17-17-17-17-17-17-18-18-18-18-18-19-19--|
B|-----------------------------------------------------------|
G|-----------------------------------------------------------|
D|-----------------------------------------------------------|
A|-----------------------------------------------------------|
E|-----------------------------------------------------------|

[/solo]

[solo de led zeppelin]

¡Ahhh! ¡Ahhh! ¡Ahhh!

e|----------------12----------------------------|
B|-9---9-------12----15-12----------------------|
G|-9---9---14^-------------15p14p12-14-12-14^---|
D|-9---9----------------------------------------|
A|-7---7----------------------------------------|
E|-0---0----------------------------------------|

e|------------------------------------------|-----------------12---------15--------|
B|-9---9------3-----------------------------|-9---9--------12----15^-15^----15^----|
G|-9---9--2/4---4p2p0-2-0-0-2p0-------------|-9---9--14b16-------------------------|
D|-9---9------------------------2p0-2p0-----|-9---9--------------------------------|
A|-7---7--------------------------------2p0-|-7---7--------------------------------|
E|-0---0------------------------------------|-0---0--------------------------------|

e|--------------------------------|-----------19^---19-18-17--------------|
B|-9---9--17-20^---20-17----20p17-|-9---9--17----------------20p17-20-17--|
G|-9---9-----------------18-------|-9---9---------------------------------|
D|-9---9--------------------------|-9---9---------------------------------|
A|-7---7--------------------------|-7---7---------------------------------|
E|-0---0--------------------------|-0---0---------------------------------|

e|-----------------------------------10-13-12-10-13-12-10-13-12-10-13-12^--|
B|-9---9---17-19---19^---19^---19^-----------------------------------------|
G|-9---9-------------------------------------------------------------------|
D|-9---9-------------------------------------------------------------------|
A|-7---7-------------------------------------------------------------------|
Q|-0---0-------------------------------------------------------------------|

e|-----------------------|
B|-----------------------|
G|--------5-----5-----5--|  x 2
D|--------5-----5-----5--|
A|--------3-----3-----3--|
E|----0-0---0-0---0-0----|
 P.M. |-|   |-|   |-|

[/solo de whole lotta love]

[coro]

Tututu...
¡Márchate, márchate ya!

Tututu...
¡Márchate, márchate ya!

e|-----------------------------------------------------------|
B|-----------------------------------------------------------|
G|--------9--9-----6-----7--7/9/7-----9--9/5--5-----5-----5--|  x 2
D|--------9—-9-----6-----7--7/9/7-----9--9/5--5-----5-----5--|
A|--------7—-7-----4-----5--5/7/5-----7--7/3--3-----3-----3--|
E|----0-0------0-0---0-0----------0-0-----------0-0---0-0----|
 P.M. |-|      |-|   |-|          |-|           |-|   |-|

[/coro]

[verso]

e|-------------------------------------|      |---------|
B|-------------------------------------|      |---------|
G|----------------------------5-5-5/7--| x 3  |--7---5--|
D|----------------------------5-5-5/7--|      |--7---5--|
A|----------------------------3-3-3/5--|      |--5---3--|
E|----0-0-0-0-0-0-0-0-0-0-0-0----------|      |---------|
 P.M. |---------------------|

Oh santo dólar, aquí estás
Samaritanos y cowboys
Un pajarito mira, flash
A quemarropa polaroid.

[/verso]

[fin]

Tututu...
¡Márchate, márchate ya!
e|-----------------------------------------------------------|
B|-----------------------------------------------------------|
G|--------9--9-----6-----7--7/9/7-----9--9/5--5-----5-----5--|
D|--------9—-9-----6-----7--7/9/7-----9--9/5--5-----5-----5--|
A|--------7—-7-----4-----5--5/7/5-----7--7/3--3-----3-----3--|
E|----0-0------0-0---0-0----------0-0-----------0-0---0-0----|
 P.M. |-|      |-|   |-|          |-|           |-|   |-|

Tututu...
Márchate, márchate, márchate, márchate...  ¡ya!

e|------------------------------------------------------------------|
B|------------------------------------------------------------------|
G|--------9--9-----6-----7--7/9/7-----9--9/5--5-----5-----5-----5--5|
D|--------9—-9-----6-----7--7/9/7-----9--9/5--5-----5-----5-----5--5|
A|--------7—-7-----4-----5--5/7/5-----7--7/3--3-----3-----3-----3--3|
E|----0-0------0-0---0-0----------0-0-----------0-0---0-0---0-0-----|
 P.M. |-|      |-|   |-|          |-|           |-|   |-|   |-|

[/fin]

Simbología:

~    -   Vibrato
/    -   Slide
^    -   Full bend
P.M. -   Palm muted
p    -   Pull off
Comments