Moby Dick - Krhinta Chords & Tabs

 

Krhinta Chords & Tabs

Moby Dick Chords & Tabs

Version: 2 Type: Tab 0 ratings
1 star 2 stars 3 stars 4 stars 5 stars
comments

Krhinta Tab

   
Moby Dick
K˘rhinta
I tabbed this song in 2004 nov. 02.
gaftt@freemail.hu

Intro

G1:
1----------------------------|
2----------------------------|
3----------------------------|
4----------------------------|
5-0-0-------3-2--------------|
6-------0-2------------------|

G2:
1----------------------------|
2----------------------------|
3----------------------------|
4----------------------------|
5-0-0-------3-2--------------|
6-------0-2------------------|


Pre verse

G1:
1-----------------------------|
2-----------------------------|
3-----------------------------|
4-----------------------------|
5-2-2-3-2---2-------3-2--5-3--|
6-0-0-1-0-0-0-0-0-0-----------|

G2:
1-----------------------------|
2-----------------------------|
3-----------------------------|
4-----------------------------|
5-2-2-3-2---2-------3-2--5-3--|
6-0-0-1-0-0-0-0-0-0-----------|

Verse
[ Tab from: http://www.guitartabs.cc/tabs/m/moby_dick/krhinta_tab_ver_2.html ]
G1:
1-----------------------------|
2-----------------------------|
3-----------------------------|
4-----------------------------|
5-2-2-3-2---2-------3-2--5-3--|
6-0-0-1-0-0-0-0-0-0-----------|

G2:
1-----------------------------|
2-----------------------------|
3-----------------------------|
4-----------------------------|
5-----------------------------|
6-0-0-0-0-0-0-0-0-0-0-0-0-0-0-|


Pre chorus

G1:
1-----------------------------|
2-----------------------------|
3-----------------------------|
4-----------------------------|
5---------2-2-----------------|
6-2--2--2-----2--2-2-3--------|

G2:
1-----------------------------|
2-----------------------------|
3-----------------------------|
4-----------------------------|
5-----------------------------|
6-0--0--0-0-0-0--0-0-1--------|


Chorus

G1:
1-----------------------------|
2-----------------------------|
3-----------------------------|
4-----------------------------|
5---7-7----5---5--------------|
6-0------0---0---8-7----------|

G2:
1-----------------------------|
2-----------------------------|
3-----------------------------|
4-----------------------------|
5-0-3-3--0-2-0-2-1-0----------|
6-0-3-3--0-2-0-2-1-0----------|
Comments