Moby Dick - Krhinta Chords & Tabs

 

Krhinta Chords & Tabs

Moby Dick Chords & Tabs

Version: 1 Type: Tab 0 ratings
1 star 2 stars 3 stars 4 stars 5 stars
comments

Krhinta Tab

Band:Moby Dick
Song:Körhinta
Album:Körhinta

Tabbed By:Ati gaftt@frremail.hu ha akarsz valamit

Intro

1-------------------------|
2-------------------------|
3-------------------------|
4-------------------------|
5-0--0------3-2-----------|
6-------0-2---------------|

1----------------------------|
2----------------------------|
3----------------------------|
4----------------------------|
5-0--0-2-0---0--0-0-2-0-3-2--|
6----------------------------|

Verse
[ Tab from: http://www.guitartabs.cc/tabs/m/moby_dick/krhinta_tab.html ]
1---------------------------|
2---------------------------|
3---------------------------|
4---------------------------|
5-2--2-3-2----2-----3-2-5-3-|
6-0--0-1-0-0--0-0-0---------|

Pre. Ch.:

1-------------------------|
2-------------------------|
3-------------------------|
4-------------------------|
5---------2-2-------------|
6-2--2--2-----2--2-2-3----|

Ch.:

1--------------------------|
2--------------------------|
3--------------------------|
4--------------------------|
5----7--7-----5-----5------|
6-0--------0-----0-----8-7-|

A Moby Dick a legjobb magyar metal banda!!!!!
Comments