Moby Dick - A Gazember Chords & Tabs

 

A Gazember Chords & Tabs

Moby Dick Chords & Tabs

Version: 2 Type: Tab 0 ratings
1 star 2 stars 3 stars 4 stars 5 stars
comments

A Gazember Tab

   
#----------------------------------PLEASE NOTE---------------------------------#
#This file is the author's own work and represents their interpretation of the #
#song. You may only use this file for private study, scholarship, or research. #
#------------------------------------------------------------------------------##
From: h430813@stud.u-szeged.hu
Subject: tab of Moby Dick : A gazember

 Moby Dick is the best Hungarian thrash band .
 They play the next song :


 A gazember


Intro :

---------------------------------------------|
---------------------------------------------|
---------------------------------------------|
---------------------------------------------|
--3---2--2----3---2--2---3---2----2--2--2----|
--1---0--0----1---0--0---1---0----0--0--0----|
      .  .        .  .       .    .  .  .

-----------------------------------------------|
-----------------------------------------------|
-----------------------------------------------|
------------------------------------3-2-3------|
--3---2--2----3---2--2---3---2--2--------------|
--1---0--0----1---0--0---1---0--0--------------|
      .  .        .  .       .  .    h p

-----------------------------------------------------------------|
-----------------------------------------------------------------|
-----------------------------------------------------------------|
-----------------------------------------------------------------|
--3---2--2---3---2--2---3---2----2--2--2----3---2--2---3---2--2--|
--1---0--0---1---0--0---1---0----0--0--0----1---0--0---1---0--0--|
      .  .       .  .       .    .  .  .        .  .       .  .

Play 3 times :

----------------------------------------------------|
----------------------------------------------------|
----------------------------------------------------|
------------------------7---------------------------|
----7-------------------5---5--5--5--7--5--7--5-----|
----5---5--5--5--5--5-------------------------------|
        .  .  .  .  .       .  .  .    p     p


----------------------------------------------------|
----------------------------------------------------|
----------------------------------------------------|
-----------------------7----------------------------|
----7------------------5----7--5-----7--5-----7--5--|
----5---5--5--5--5--5-------------5--------5--------|
        .  .  .  .  .  .      p   .    p   .

Riff 1 :

                          +-------------   +--------
play 4 times              |1. 2. 3. time   |4. time
-------------------------------------------------------|
-------------------------------------------------------|
-------------------------------------------------------|
----------------------------9--9~~~~-------------------|
--------2-------5---7---5---7--7~~~~--------2--2--2----|
--0--0--0---0---3---5---3-------------------0--0--0----|
  .  .      .                               .  .  .
[ Tab from: http://www.guitartabs.cc/tabs/m/moby_dick/a_gazember_tab_ver_2.html ]
------------------------------------------------------------|
------------------------------------------------------------|
------------------------------------------------------------|
------------------------------------------------------------|
-3---3--2-----3---3--2-----3---3--2-----3---3--2-----3---3--|
-1---1--0-----1---1--0-----1---1--0-----1---1--0-----1---1--|


Riff 2 :

 G5                             G#5   G5
---------------------------------------------------------------------------|
---------------------------------------------------------------------------|
---------------------------------------------------------------------------|
---------------------------------------------------------------------------|
-5------------------------------6--6--5------------------------------------|
-3--3-3-3-3-3-3-3-3-3-3-3-3-3-3-4--4--3--3-3-3--3-3-3--3-3--3-3--3-3--3--3-|
    . . . . . . . . . . . . . .          . . .  . . .  . .  . .  . .  .  .

     Az ember ejjel  aludna  mar     De van ki ilyenkor mindig lanyokra var

 F5    E5                                F5    E5
-------------------------------------------------------------------------------|
-------------------------------------------------------------------------------|
-------------------------------------------------------------------------------|
-----------------9-------9--------9----------------------9--------9--------9---|
-3--3--2---------7-------7--------7------3--3--2---------7--------7--------7---|
-1--1--0---0--0-----0-0-----0--0-----0---1--1--0---0--0-----0--0-----0--0----0-|
           .  .     . .     .  .     .             .  .     .  .     .  .    .

 Oh , igen                              A gazember

  B5                A5                Riff 1
--------------------------------------------|
--------------------------------------------|
--------------------------------------------|
--4-----------------2-----------------------|
--2-----------------0-----------------------|
--------------------------------------------|

  A nok miatt let - tem ilyen gazem - ber


  Riff 2

  G5                            G#5   G5
  Tudom hogy reggelre letagadod       De minden almodban veled vagyok


---------------------------------------------------------------|
---------------------------------------------------------------|
---------------------------------------------------------------|
---------------9-----9-----9-----------------------------------|
--3--3--2------7-----7-----7----3--3--2-------5--7--5----------|
--1--1--0--0-0---0-0---0-0---0--1--1--0--0-0--3--5--3--0--0--0-|
           . .   . .   . .   .           . .           .  .  .

  Oh , igen                     A gazember

 B5                            C5   A5
-----------------------------------------------------------|
-----------------------------------------------------------|
-----------------------------------------------------------|
-4-----------------------------5----2----------------------|
-2-----------------------------3----0----------------------|
-----------------------------------------------------------|

 A lanyok tudjak , a fiuk nem         Mert lettem gazember

Solo : (Sorry , but i can't play it)


The other verses :

  A ferjed eszi a hust a babot , En meg a csirket amit o otthagyott

  Oh , igen   A gazember   A nok miatt lettem ilyen gazember

  Kihult a csirke , szaftja hideg  , Lelepek mielott meggebedek

  Oh , igen   A gazember  A lanyok tudjak , a fiuk nem

  Mert lettem GAZEMBER .
Comments