Moby - Why Does My Heart Feel So Bad Chords & Tabs

 

Why Does My Heart Feel So Bad Chords & Tabs

Moby Chords & Tabs

Version: 2 Type: Tab 0 ratings
1 star 2 stars 3 stars 4 stars 5 stars
comments

Why Does My Heart Feel So Bad Tab

   
#----------------------------------PLEASE NOTE--------------------------------#
#This file is the author's own work and represents their interpretation of the#
#song. You may only use this file for private study, scholarship, or research.#
#-----------------------------------------------------------------------------#
#-- File created with Instab - http://www.pconline.com/~smcarey/instab.html --#
#-----------------------------------------------------------------------------#

Author/Artist: Moby
Title: Why does my heart feel so bad?
Transcribed by: 
Email: fivecentcoin@hotmail.com

This is not one hundred percent correct but if its played by it self it sounds  alright.
Any comments,e-mail me!
[ Tab from: http://www.guitartabs.cc/tabs/m/moby/why_does_my_heart_feel_so_bad_tab_ver_2.html ]
-|-8---------8--8----8--|--------------------|--------------------------------|
-|-10-----10----10---10-|-8----8--8--------8-|-12----12--12-----------12------|
-|-9----9-------9----9--|-9----9--9------9---|-12----12--12--------12---------|
-|-7--7---------7--7----|-9----9--9----9-----|-12----12--12-----12------------|
-|----------------------|-7--7----7--7-------|-10--10----10--10---------------|
-|----------------------|--------------------|--------------------------------|
           A                       E                         G

-|---------------|------------------------------------------------------------|
-|-7--7--------7-|------------------------------------------------------------|
-|-7--7------7---|------------------------------------------------------------|
-|-7--7----7-----|------------------------------------------------------------|
-|-5--5--5-------|------------------------------------------------------------|
-|---------------|------------------------------------------------------------|
         D           -
Comments