Moby - Thats When I Reach For My Revolver Chords & Tabs

 

Thats When I Reach For My Revolver Chords & Tabs

Moby Chords & Tabs

Version: 1 Type: Tab 0 ratings
1 star 2 stars 3 stars 4 stars 5 stars
comments

Thats When I Reach For My Revolver Tab

             That's When I Reach For My Revolver
                           by
                          MOBY


From the album 'Animal Rights'
 

INTRO: CLEAN
--------------------------------------------------------
--------------------------------------------------------
--------------------------------------------------------
----2-2--2---2-2-----2-2---2-----2-2--------------------
---2----2-----------2-----2-----------------------------
--0-------0-------0-----------0-------0-----------------

Reapeat into first verse, then...

CHORUS: HEAVY DISTORTION

--------------------------------------------------------
--------------------------------------------------------
-----------4-----------6---------------8---------4------
--2--------4--*Slide*--6--x-9-*Slide*--8-*Slide*-4-(x-7)
--2-(X-7)--2-----------4---------------6---------2------
--0-----------------------------------------------------

SOLO:
[ Tab from: http://www.guitartabs.cc/tabs/m/moby/thats_when_i_reach_for_my_revolver_tab.html ]
--------------------------------------------------------
--------------------------------------------------------
----6-*Slide*-8-8-8-8-*Slide*--6--*Slide*-8-8-8-8-8-----
--------------------------------------------------------
--------------------------------------------------------
--------------------------------------------------------


--------------------------------------------------------
--------------------------------------------------------
--*Slide*--6-6-6---*Slide*---13--*Slide*--8-8-8-*Slide*-
--------------------------------------------------------
--------------------------------------------------------
--------------------------------------------------------


--------------------------------------------------------
--------------------------------------------------------
----6-*Slide*-8-8-8-8-*Slide*--6--*Slide*-8-8-8---------
--------------------------------------------------------
--------------------------------------------------------
--------------------------------------------------------

--------------------------------------------------------
--------------------------------------------------------
---*Slide*---4--(Hold)----------------------------------
--------------------------------------------------------
--------------------------------------------------------
--------------------------------------------------------

By Smacky

That's all. 

Comments