Moby - Southside Chords & Tabs

 

Southside Chords & Tabs

Moby Chords & Tabs

Version: 1 Type: Tab 0 ratings
1 star 2 stars 3 stars 4 stars 5 stars
comments

Southside Tab

Moby
Southside ft. Gwen Stefani
from "Play"

Tabbed by Ben R.

If you have any suggestions or corrections, email me at BRcool22@aol.com


I'm not totally sure about the chorus but these are the first two chords 

-----------------------------------------------------------------------------
-----------------------------------------------------------------------------
-------1----------------------------------------------------------------2----
--2----2-------------------------------------4---2----------------------2--2-
--2----2-------------------------------------2---2----------------------2--2-
--0------------------------------------------2---0-------------------------0-
        then it might be something like this      or with this variation

If you know the chorus email me



[ Tab from: http://www.guitartabs.cc/tabs/m/moby/southside_tab.html ]
Verse 2
-----------------------------------------------------------------------------
--14--14-14\12-12/14-14--14-14/17-17\14-14--14\12-12/14--14-14/17------------
--13--13-13\11-11/13-13--13-13/16-16\13-13--13\11-11/13--13-13/16------------
-----------------------------------------------------------------------------
-----------------------------------------------------------------------------
-----------------------------------------------------------------------------

-----------------------------------------------------------------------------
-17\14--14--14\12-12/14-14\--------------------------------------------------
-16\13--13--13\11-11/13-13\--------------------------------------------------
-----------------------------------------------------------------------------
-----------------------------------------------------------------------------
-----------------------------------------------------------------------------

This is kind of strange.  In the song, they don't really play both notes in
that chord.  Listen to it and you can hear it.  Otherwise you probably have 
no idea what I'm talking about.  Play the bottom note prior to a down slide
and when you come back up play the top note instead and vice versa.
For Example:
Play:
-------------------14-14--14-14/17-17\-------- 
Comments