Moby - Southside Solo Chords & Tabs

 

Southside Solo Chords & Tabs

Moby Chords & Tabs

Version: 1 Type: Tab 0 ratings
1 star 2 stars 3 stars 4 stars 5 stars
comments

Southside Solo Tab

	

MOBY---SOUTHSIDE 
                                                                               (SOLO)
By Smacky

E-------------------------------------------------------------------------------------------------------------------------------
B------------------------------------------------------------------------------------------------------------------------------- 
G-(11)--9------------------ 9-9-9-9-9---------------------------------------(9 11)x6-bend up-and-strike-with pick--
D-----------11-11-11-11-11------------11-11-11-11-11-11------------9-11 -------------------------------------------- 
A----------------------------------------------------------------------- 9-11--------------------------------------------------
E-------------------------------------------------------------------------------------------------------------------------------

It’s mostly just improvisation. Play around and listen to the song.
[ Tab from: http://www.guitartabs.cc/tabs/m/moby/southside_solo_tab.html ]
E-------------------------------------------------------------------------------------------------------------------------------                                                                                                                                       
B----------------------------------------------------------------------------- 9-12-9-12 –9-12 –9-12-9-12---------------
G----------------------------9-9-9-9-9-------------------------------9-11---------------------------------------------------
D-11-11-11-11-------- 9-11-------------11-11-11-11--------- 9-11------------------------------------------------------
A--------------------9-11--------------------------------------9-11----------------------------------------------------------
E-------------------------------------------------------------------------------------------------------------------------------


E-12--9----------------------------------------------------------------------------------------------------------x--x-x------
B-------- 12--9--------------------------------------------------------------------------------------------------x--x-x------
G-----------------(9 11) bend up and strike really fast with pick—9------------------------------------ x-scratch---
D----------------------------------------------------------------------------11-11-------------------2----------x--x--x-----
A------------------------------------------------------------------------------------------------------2----------x--x--x-----
E----------------------------------------------------------------------------------12
Comments