Moby - Raining Again Chords & Tabs

 

Raining Again Chords & Tabs

Moby Chords & Tabs

Version: 1 Type: Tab 0 ratings
1 star 2 stars 3 stars 4 stars 5 stars
comments

Raining Again Tab

   
Moby - Raining again

Tab by David Gómez

Intro

E||---------------------|------------------|---------------------|
B||---------------------|------------------|---------------------|
G||---------------------|------------------|---------------------|
D||---7h9--7h9--7h9-7h9-|---------7--------|---------------------|
A||---------------------|----7-9-----------|---------------------|
E||---------------------|------------------|---------------------|

Solo

E||---------------------|------------------|---------------------|
B||-------17----17------|------15-----15---|--------14-----14----|
G||--9s16----16----16---|---14----14----14-|--12s14-----14----14-|
D||---------------------|------------------|---------------------|
A||---------------------|------------------|---------------------|
E||---------------------|------------------|---------------------|





B5
Never know but nothing less
B5
Couldnīt see that I have guessed
B5
Couldnīt see, couldnīt stay away
A5
I never even stopped to dream and
A5
That Id see anything and
A5
The world is coming out so cold

Em               D
Oh, and itīs raining again
A
Light on your car light, bullets on tin
[ Tab from: http://www.guitartabs.cc/tabs/m/moby/raining_again_tab.html ]
Em                D
Oh, and its raining again
A
Open the door and pulling me in
B5
Nothing here but nothing less
B5
Cold heart is stuck in this
B5
Couldnīt say the kindest words we knew
A5
Everything I tried to say but
A5
no one listens anyway
A5
I had to give up all that I knew
Em               D
Oh, and itīs raining again
A
Light on your car light, bullets on tin
Em               D
Oh, and its raining again
A
Open the door and pulling me in
Em               D
Oh, and itīs raining
A
Raining again
Em               D
Oh, and itīs raining
Em
Raining again
B5
Nothing here but nothing less
B5
Everything we both regret
B5
Couldnīt say the kindest words we knew
A5
Cause it was winter time and
A5
We wanted some more time and
A5
We watched the girls try something knew
B5
We didnīt even stopped to see that
B5
That It was breaking me and
B5
the world is coming out so cold
A5
What you want you couldnīt get, you
A5
Couldnīt wait for something less, you
A5
had to give up everything you knew
Em                     D
Oh, and itīs raining again
A
Light on your car light, bullets on tin
Em                    D
Oh, and its raining again
A
Open the door and pulling me in
[2x]
E             D             A          
Sadness like water raining down
A
Raining down, raining down, raining down
[5x]
Em             D
Oh, and itīs raining
A
Raining again
Em             D
Oh, and itīs raining
A
Raining again
Comments