Moby - Porcelain Chords & Tabs

 

Porcelain Chords & Tabs

Moby Chords & Tabs

Version: 1 Type: Tab 0 ratings
1 star 2 stars 3 stars 4 stars 5 stars
comments

Porcelain Tab

From the album "Play"
(poorly) tabbed by Patrick Vacek
Standard Tuning

Main Riff
e|--------------------|
B|--------------------|
G|-------8---10---8---|
D|---8---8---10---8---|
A|---8---6---8----6---|
E|---6----------------|
[ Tab from: http://www.guitartabs.cc/tabs/m/moby/porcelain_tab.html ]
Alternate Riff (played somewhere in the middle)
e|-----------------------|
B|-----------------------|
G|--------10---12---10---|
D|---10---10---12---10---|
A|---10---8----10---8----|
E|---8-------------------|

This song is actually a synth song, but you can pretend that there is a guitar.
Iím not sure about the alternate riff. It might be a fret or two off.
If the Eb in the main riff doesnít sound right, try playing it on the 11th 
fret on the E string.
Comments