Moby - Lift Me Up Chords & Tabs

 

Lift Me Up Chords & Tabs

Moby Chords & Tabs

Version: 1 Type: Bass Tab 0 ratings
1 star 2 stars 3 stars 4 stars 5 stars
comments

Lift Me Up Bass Tab

 /--------~/º)(·)(º\~---------\
< Moby - Lift Me Up (Milo mix) >
 \--------~\º)(·)(º/~---------/

Tabbed and submitted by: Emilio Crudele - Crudo
E-Mail: negro_fan@hotmail.com
______
|NOTE| This song is not tabbed by it's author and might be not used COMERCIALLY.
ºººººº

Language: English/Inglés
---------------------------------------------------------------------------------
Bass Line
[ Tab from: http://www.guitartabs.cc/tabs/m/moby/lift_me_up_btab.html ]
G|----------------|----------------|
D|----------0---0-|----------------|
A|-2--2---02---2--|----------------|
E|-------2--------|-3-3-3-22-2--22-|

G|----------------|----------------|
D|----------0---0-|-0-0-0----2---0-|
A|-2--2---02---2--|-------02----2--|
E|-------2--------|----------------|

Repeat all over the bass part (It starts at 1:05, I think)

Enjoy it, because its correctly tabbed, checked and its FREE!
Comments