Moby - Guitar Flute And String Chords & Tabs

 

Guitar Flute And String Chords & Tabs

Moby Chords & Tabs

Version: 1 Type: Tab 0 ratings
1 star 2 stars 3 stars 4 stars 5 stars
comments

Guitar Flute And String Tab

Moby -- Guitar Flute and String
I typed this out - it's my first time writing tab so don't blame me if it comes out looking like it's been shredded
but hey.. here goes

The first bit is an E minor chord, with the pattern

Chord ----------------------------------------------------
1     ----------------------------------------------------
      ---------0---------------0--------------------------
      ---2-------2-------2-------2------------------------
      -----2-------2-------2-------2----------------------
      -0-----0-------0-------0-------0-0------------------

The next chord has the same pattern, except the fingering is like this:

Chord ----------------------------------------------------
2     ----------------------------------------------------
      ---------1---------------1--------------------------
      ---0-------0-------0-------0------------------------
      -----0-------0-------0-------0----------------------
      -1-----1-------1-------1-------1-1------------------

Repeat these two chords 1,2,1,2

Then an F chord which has the same pattern as chords 1 and 2 but the fingering goes
[ Tab from: http://www.guitartabs.cc/tabs/m/moby/guitar_flute_and_string_tab.html ]
Chord ----------------------------------------------------
3     ----------------------------------------------------
      ---------2---------------2--------------------------
      ---3-------3-------3-------3------------------------
      -----3-------3-------3-------3----------------------
      -1-----1-------1-------1-------1-1------------------

Then again chord 1

Chord ----------------------------------------------------
1     ----------------------------------------------------
      ---------0---------------0--------------------------
      ---2-------2-------2-------2------------------------
      -----2-------2-------2-------2----------------------
      -0-----0-------0-------0-------0-0------------------

Then a nice-sounding A minor chord which goes

Chord ----------------------------------------------------
4     ---------0s1--------------0s1-----------------------
      ---2---------2-------2---------2--------------------
      -----2---------2-------2---------2------------------
      -0-----0---------0-------0---------0-0--------------
      ----------------------------------------------------

Then again to chord 2

Chord ----------------------------------------------------
2     ----------------------------------------------------
      ---------1---------------1--------------------------
      ---0-------0-------0-------0------------------------
      -----0-------0-------0-------0----------------------
      -1-----1-------1-------1-------1-1------------------

Repeat these two chords (4 and 2) again so this phrase goes 4,2,4,2

Repeat this whole segment and you basically have the song.
This sounds great on accoustic and it doesn't need capoing so you can play with the music 
without being hopelessly out of tune.

by
--chaz--
(tranceaddict)

Comments