Moby - Extreme Ways Chords & Tabs

 

Extreme Ways Chords & Tabs

Moby Chords & Tabs

Version: 1 Type: Tab 0 ratings
1 star 2 stars 3 stars 4 stars 5 stars
comments

Extreme Ways Tab

   
Moby - Extreme Ways (From 18)
Words and music by Moby

Tabbed by Facundo Bressan (machine_ofgod@yahoo.com.ar)

The song is in normal tunning (Eadgbe)
Clean guitar

First Intro (After that pretty siren sound)
   
   Bmin7            B7sus
e:--2----2----2--2---2--2--|
b:--3----3----3--3---5--5--|
g:--2----2----2--2---2--2--|
d:--4----4----4--4---4--4--|
a:--2----2----2--2---2--2--|
E:-------------------------|

Repeat four times then drums enter

Second intro/Chorus (Repeat two times each bar)

    Bmin7            B7sus       A7               A
e:--2----2----2--2---2--2--2--|--0----0----0--0---0--0--0--|
b:--3----3----3--3---5--5--3--|--2----2----2--2---2--2--2--|
g:--2----2----2--2---2--2--2--|--0----0----0--0---2--2--0--|
d:--4----4----4--4---4--4--4--|--2----2----2--2---2--2--2--|
a:--2----2----2--2---2--2--2--|--0----0----0--0---0--0--0--|
E:----------------------------|----------------------------|

    Emin7            E7sus
e:--7----7----7--7---7--7--7--|--2----2----2--2---2--2--2--|
b:--8----8----8--8---10-10-8--|--3----3----3--3---5--5--3--|
g:--7----7----7--7---7--7--7--|--2----2----2--2---2--2--2--|
d:--9----9----9--9---9--9--9--|--4----4----4--4---4--4--4--|
a:--7----7----7--7---7--7--7--|--2----2----2--2---2--2--2--|
E:----------------------------|----------------------------|

Verse (Repeat two times each bar)
[ Tab from: http://www.guitartabs.cc/tabs/m/moby/extreme_ways_tab.html ]
    Bmin                     A
e:--7-----7----7----7--7--|--5-----5----5----5--5--|
b:--7-x-x-7-x--7-x--7--7--|--5-x-x-5-x--5-x--5--5--|
g:--7-x-x-7-x--7-x--7--7--|--6-x-x-6-x--6-x--6--6--|
d:--9-x-x-9-x--9-x--9--9--|--7-x-x-7-x--7-x--7--7--|
a:--9-x-x-9-x--9-x--9--9--|--7-x-x-7-x--7-x--7--7--|
E:--7-----7----7----7--7--|--5-----5----5----5--5--|

    Emin
e:--7-----7----7----7--7--|--7-----7----7----7--7--|
b:--8-x-x-8-x--8-x--8--8--|--7-x-x-7-x--7-x--7--7--|
g:--9-x-x-9-x--9-x--9--9--|--7-x-x-7-x--7-x--7--7--|
d:--9-x-x-9-x--9-x--9--9--|--9-x-x-9-x--9-x--9--9--|
a:--7-x-x-7-x--7-x--7--7--|--9-x-x-9-x--9-x--9--9--|
E:------------------------|--7-----7----7----7--7--|

Prechorus: Just hit a Bmin chord (x24432) four times.
In the verse and chorus a second guitar with overdrive distortion
(and a lower volume), plays the first chord of each bar.

End:

e:-------------------------|--------------------|
b:-------------------------|----------------3---|
g:-------------3--3--3-3-5-|-------------3------|
d:-------3-4-5-------------|-------3-4-5------5-|
a:-3-4-5-------------------|-3-4-5--------------|
E:-------------------------|--------------------|

e:-------------------------|--------------------|
b:-------------------------|--------------------|
g:-------------3--3--3-3-5-|-------------3--3---|
d:-------3-4-5-------------|-------3-4-5------5-|
a:-3-4-5-------------------|-3-4-5--------------|
E:-------------------------|--------------------|

I hope you enjoy this!!!!
Comments