Mobile - Out Of My Head Chords & Tabs

 

Out Of My Head Chords & Tabs

Mobile Chords & Tabs

Version: 1 Type: Tab

Out Of My Head Tab

   
Check out this song by the catchy new band mobile coming out of Canada's music capital, Montreal.

http://www.umusic.ca/mobile/


Opening Riff #1

e-------------------------|
B-------------------------|
G-------------------------|
D-----5-3-1-0-1-0---------|
A---3-------------1-------|
E-------------------------|

Opening Riff #2

e-------------------------|
B-------------------------|
G-------------------------|
D-----5-3-1-8-5-3-5-------|
A---3---------------------|
E-------------------------|
Come on over, let me watch you
Let me hold you, let me touch you

Verse:
   Cm						
Right or wrong I should have stayed up 'til the break of dawn
   G#
Ever since our eyes did meet
    Fm
I long to see
   Cm
Your eyes surprised me like a moon on a cowboy movie screen
    G#					Fm
I never found out what it means


Chorus: 
For the chorus listen to the song to get the rhythm:

e----------------------------|
B----------------------------|
G---5--7--8---12-108-108-7---|
D---x--x--x----x-x-x-x-x-x---|
A---3--5--6---10-8-6-8-6-5---|
E----------------------------|
[ Tab from: http://www.guitartabs.cc/tabs/m/mobile/out_of_my_head_tab.html ]
I must be out of my head
It must be something I said
So come on I'll waste my life
You think I'm out of my head
But I'm romantically dead 
So come on I'll waste my life on you
     

Opening Riffs Again

Come on over, let me watch you
Let me hold you, let me touch you

Verse #2 (same chords):
I'm right, you're wrong
You should have come to me before too long
You'll never leave my sight again
To keep you then
Your eyes deny me like the sun on a night sky movie scene
And I just don't care what it means

Repeat chorus

Bridge:

e--3---3---3--6---6---6---4---4---4--4---4--4--|
B---4---4---4--4---4---4---4---4---5--6---6--6-|
G----5---5------5---5-------5---5------3---3---|
D----------------------------------------------|
A----------------------------------------------|
E----------------------------------------------|

And I hate to be the one
The one to drop the bomb
You wouldn't wait around
But I'll be watchin' you    
Woooooo you! yeah you
Woooooo you! yeah you      

I'll watch your every move
You can't know we can't hurt
You got no choice I got you         

Repeat chorus
   
I'll waste my life, I'll waste my life, my life on you


Anything i've left out should be fairly easy to figure out, send 
to zoolake@gmail.com