Mizraab - Kitnee Sadian Chords & Tabs

 

Kitnee Sadian Chords & Tabs

Mizraab Chords & Tabs

Version: 1 Type: Tab 0 ratings
1 star 2 stars 3 stars 4 stars 5 stars
comments

Kitnee Sadian Tab

   
                             KITNEE SADIAN

This is a great ballad by Mizraab which I think hasn't gotten the appreciation it
deserved, hope you find the tabs accurate.


RHYTHM GUITAR IS TUNED ONE STEP DOWN
D G C F A D

LEAD GUITAR TUNING
STANDARD

[CHORDS]
D [x x 0 2 3 2]
G [3 2 0 0 0 3]
C [x 3 2 0 1 0]
Am [x 0 2 2 1 0]
A [x 0 2 2 2 0]
A# [x 1 3 3 3 1]
Gm [3 5 5 3 3 3]
E [x x 2 4 5 4]
F [1 3 3 2 1 1]


INTRO: GUITAR RHYTHMS

D                          A
e --2--2--0h2--3--2-------|---0--0--0-0-0--0------|
B --3--3--3-3--3--3-------|---2--2--0h2-3--2------|
G --2--2--2-2--2--2-------|---2--2--2-2-2--2------|
D --0--0--0-0--0--0-------|---2--2--2-2-2--2------|
A ------------------------|---0--0--0-0-0--0------|
E ------------------------|-----------------------|

C                          G
e --0--0--0-0--0--0-------|---3---3---3---3---3---|
B --1--1--1h3--3--1-------|---0---0---0---0---0---|
G --0--0--0-0--0--0-------|---0---0---0---0---0---|
D --2--2--2-2--2--2-------|---0---0---0---0---0---|
A --3--3--3-3--3--3-------|---2---2---2---2---2---|
E ------------------------|---3---3---3---3---3---|

PLAY TWICE

e --------2---------------------|
B -----------3------------3-----|
G -----2--------------3---------|
D --0---------------------------|
A ----------------1-------------|
E ------------------------------|

GUITAR PICKING:

G C
e --------3-----------------------0--------|
B ------0-----0---------------1---1--------|
G ----0--------------------2---------------|
D -----------------------------------------|
A -----------------0-2-3-------------------|
E -3---------------------------------------|


OPENING VERSE:

        D               G     C           D
Teri aankhein teray dil ki saaari batein kahein

        D            G      C             D
Aaj mehkae saray pal hi kaaaei sapnay bunein.

D                                     G
Rastay khatan yay choti choti khushiyaaan yahan

        C             D
Chunn lein aaj jo bhi milaein aaaay.


PRE CHORUS:

C  G      D       C   G       D
Is zameen ki     yehi dastaan hay

C    G   D               C  G    D
Jism aur jaan    aik din to hona hay

      C  G   D     C  G
Hoooo na raahhaae  na rahey..


CHORUS:

D                 Am                G     C        D
Kitni sadiyan na janay khamoshi say yunhi  guzarti gayeen

D                     Am                      G   C      D
Waqt kay behtay darya mein jab tak saansein rahen tu hay meri hooooo.


REPEAT INTRO:

REST OF THE SONG FOLLOWS THE SAME PROGRESSION:


Aik hay rung jo yay sansaar sara roshan karay
Koi ho sung, koi ho pyar pyara jeevan lagay.

Raste khatan yay choti choti khushiyan yahan
Chunn lein aaj jo bhi milain.

REPEAT PRE CHORUS
REPEAT CHORUS


[SOLO]
[LEAD GUITAR]

D E
e ------------------------------------------|----------------------------------------------|
B ------------------------------------------|----------------------------------------------|
G ---9~~~~----------------------------------|----11~~--------------------------------------|
D ---------------------5----5~~-------------|-------------------------7-----7~~------------|
A ------------------------------------------|----------------------------------------------|
E ------------------------------------------|----------------------------------------------|
[ Tab from: http://www.guitartabs.cc/tabs/m/mizraab/kitnee_sadian_tab.html ]
Gm D (AH)
e ------------------------------------------|----------------------------------------------------------|
B ------------------------------------------|----------------------------------------------------------|
G --10~~-10-12-13-12h13----12-10-9-10-12----|-7h9---7--------------------------------------------------|
D ------------------------------------------|----------------------------------------------------------|
A ------------------------------------------|-----------------------------------------------------7p5--|
E ------------------------------------------|----------------------------------------------------------|

D E Gm
e ----------12b--10/8--10/12----------------|-----------------12-13-14b--12/10--12/14------14-----13~~~--|
B ------------------------------------------|---------13--15---------------------------------------------|
G ------------------------------------------|--13--15----------------------------------------------------|
D ------------------------------------------|------------------------------------------------------------|
A ------------------------------------------|------------------------------------------------------------|
E ------------------------------------------|------------------------------------------------------------|

D A C G
e ----12h13p12--10--8--10/12--12-13-12--10~~--------|----10b----10~~-11-13-11p10--8-8--|
B --------------------------------------------------|----------------------------------|
G --------------------------------------------------|----------------------------------|
D --------------------------------------------------|----------------------------------|
A --------------------------------------------------|----------------------------------|
E --------------------------------------------------|----------------------------------|

C G A# F
e ------------------17--17-17-17h8-17-15-13-10~~-------|--10-11-13-11p10--8-8~~~----8h10b--|
B -----------------------------------------------------|-----------------------------------|
G -----------------------------------------------------|-----------------------------------|
D -----------------------------------------------------|-----------------------------------|
A -----------------------------------------------------|-----------------------------------|
E -----------------------------------------------------|-----------------------------------|

(RM) G A D
e ----------8-9-10-11b~~~--------10-11-13~~~--------------------|--|
B ----9--11---------------11--13--------------------------------|--|
G --------------------------------------------------------------|--|
D --------------------------------------------------------------|--|
A --------------------------------------------------------------|--|
E --------------------------------------------------------------|--|


REPEAT CHORUS


IN THE END WITH THE CHORUS
LEAD GUITAR

e ----------------------------|---------------------------------------------|
B ---5-7-9--9~~-7h9p7--5/2--5-|-5h7p5/3-3h5p3/2-2h3p2p0---0--5-5h7p5-2-0----|
G ----------------------------|---------------------------------------------|
D ----------------------------|---------------------------------------------|
A ----------------------------|---------------------------------------------|
E ----------------------------|---------------------------------------------|

OUTRO


e --------0-------|
B -----------3----|
G -----2----------|
D --0-------------|
A ----------------|
E ----------------|

I've tried my best to be as accurate as possible with the solo but still you may find
one or two notes missing, please feel free to make any corrections.
Comments or suggestion please e-mail at urchursi@hotmail.com
Comments