Mixelpricks - Marcia Yockey Chords & Tabs

 

Marcia Yockey Chords & Tabs

Mixelpricks Chords & Tabs

Version: 1 Type: Tab 0 ratings
1 star 2 stars 3 stars 4 stars 5 stars
comments

Marcia Yockey Tab

   
http://www.murkta.com/mixelpricks.html

Band: the mixelpricks
song: marcia yockey

tabber: John Cukras
Email: riffreaper@yahoo.com

tuning: normal

Riff 1:
E----------------------------------------------------------------------|
B----------------------------------------------------------------------|
G----------------------------------------------------------------------|
D-2-----------------------------------2--------------------------------|
A-2------4/6------6/4------6/9------4-2------4/6------6/4------6-99999-|
E-0-0000-2/4-0000-4/2-0000-4/7-0000-2-0-0000-2/4-0000-4/2-0000-4-77777-|
pm  ....     ....     ....     ....     ....     ....     ....

Riff 2:
E-------------------------------|
B-------------------------------|
G-------------------------------|
D-22222-------------------------|
A-22222-99999-66666-99999-------|
E-00000-77777-44444-77777 x's 2-|

Riff 1

Riff 3:
E--------------------------------------------------------------|
B--------------------------------------------------------------|
G----------------------------------------222-------------------|
D-6-6-666-222222-----------------6-6-666-222-444-------6-------|
A-4-4-444-222222-9-99-8-6-66666--4-4-444-000-222-66666-4-66666-|
E---------000000-7-77-6-4-44444------------------44444---44444-|

Riff 2

Riff 3
[ Tab from: http://www.guitartabs.cc/tabs/m/mixelpricks/marcia_yockey_tab.html ]
Riff 4:   Guitar 1                                      Guitar 2
E-----------------------------------------------------|--9-8-6--9-8-4 x's 4-|
B-----------------------------------------------------|---------------------|
G-----------------------------------------------------|---------------------|
D-2---------------------------------------------------|---------------------|
A-2--------9--------6--------9---------------99999----|---------------------|
E-0-000000-7-000000-4-000000-7-000000 x's 2--77777----|---------------------|
pm  ......   ......   ......   ......

Riff 2 x's 6:
This is played with it:
E-4-9-8-4-6-8-9-4--4-9-8-4-6-8-9-11--|-13-11-88-9-8-6-4 x's 2-|
B-------------------------------------------------------------|
G-------------------------------------------------------------|
D-------------------------------------------------------------|
A-------------------------------------------------------------|
E-------------------------------------------------------------|

Riff 3 x's 2

Riff 2 x's 4:
This is played with it:
E-4-9-8-4--4-9-8-4--4-9-8-4--4-6-9-8-4 x's 4-|
B--------------------------------------------|
G--------------------------------------------|
D--------------------------------------------|
A--------------------------------------------|
E--------------------------------------------|
Comments