Mixelpricks - Im Trying To Think Chords & Tabs

 

Im Trying To Think Chords & Tabs

Mixelpricks Chords & Tabs

Version: 1 Type: Tab 0 ratings
1 star 2 stars 3 stars 4 stars 5 stars
comments

Im Trying To Think Tab

   
Band: Mixelpricks
song: I'm Trying To Think

tabber: John Cukras
email: riffreaper@yahoo.com

tuning: normal

Riff 1:                                                           |end 2nd x
E-------------------------------------------------------------------------------------|
B-------------------------------------------------------------------------------------|
G-------------------------------------------------------------------------------------|
D-------11----11----11-------9----9----9-------4----4----4-------11----11----11-------|
A-99999-9--99-9--99-9--77777-7-77-7-77-7-22222-2-22-2-22-2-99999-9--99-9--99-9--------|
E------------------------------------------------------------------------------ x's 2-|
pm.....    ..    ..    .....   ..   ..   .....   ..   ..   .....    ..    ..

Riff 2:
E----------------------------------------|
B----------------------------------------|
G----------------------------------------|
D-1111111-9999999-4444444-11111111-------|
A-9999999-7777777-2222222-99999999-------|
E--------------------------------- x's 2-|
[ Tab from: http://www.guitartabs.cc/tabs/m/mixelpricks/im_trying_to_think_tab.html ]
Riff 3:      A                            B
E---------------------------------|-------------------------------------|
B---------------------------------|-------------------------------------|
G---------------------------------|-------------------------------------|
D---------------------------------|------------------------------111111-|
A-9999999-7777777-2222222-9999999-|-9999999-7777777-222222-99999-99999--|
E---------------------------------|-------------------------------------|
pm....... ....... ....... .......   ....... ....... ...... .....

Riff 4:
E-------------------|
B-------------------|
G-------------------|
D-11-44-99-44-------|
A-9--22-77-22-------|
E------------ x's 4-|

Riff 5:                      A                                                           B
E----------------------------------------------------------------------------------|----------------------|
B----------------------------------------------------------------------------------|----------------------|
G----------------------------------------------------------------------------------|----------------------|
D----------------------------------------------------------------------------------|-------99999----------|
A-7---------9---------5--------9-------99999-777777777-99999999--9-99-7/9-99-------|-77777-77777-1111111--|
E-5-5555555-7-7777777-3-333333-7-77777-77777-555555555-77777777--7-77-5/7-77 x's 2-|-55555-------9999999--|
pm  .......   .......   ......   .....

Riff 2

Riff 4

Riff 5

Riff 3: B

Riff 2

Riff 4

Riff 5: A x's 2 , B x's 4
Comments