Mithotyn - In A Time For Tales Chords & Tabs

 

In A Time For Tales Chords & Tabs

Mithotyn Chords & Tabs

Version: 1 Type: Tab 0 ratings
1 star 2 stars 3 stars 4 stars 5 stars
comments

In A Time For Tales Tab

Mithotyn-In A Time For Tales

>From the album "King of Distant Forests"


Intro:
----------------------------------------------------------------
----------------------------------------------------------------
----------------------------------------------------------------
--7--7-7-7-7-7-7------------------------------------------------
--5--5-5-5-5-5-5------------------------------------------------
----------------------------------------------------------------

Riff 1:
------------------------------------------------------------------------------
------------------------------------------------------------------------------
------------------------------------------------------------------------------
---------------7--10-10-10--9---5-5--9--7-7---12--7--12--9--9-9-9-------------
--5-5-5---7-8------------------------------------------------------10--12--8--
------------------------------------------------------------------------------

Riff 2:

------------------------------------------------------------------------
------------------------------------------------------------------------
------------------------------------------------------------------------
----7--5--7----7--5--3--2--0---------7--5--7---10--12--10---5--7--8-----
-5-----------5--------------------5-------------------------------------
------------------------------------------------------------------------
[ Tab from: http://www.guitartabs.cc/tabs/m/mithotyn/in_a_time_for_tales_tab.html ]
Solo:
Guitar 2 plays the intro riff (played in D)
---------------------------------------------------------------------------------
---------------------------------------------10--8--6--8-5-5--6--5--3--5--1--1---
-11--9--7--9--6-6--7--7--9--11---9--11--12---------------------------------------
---------------------------------------------------------------------------------
---------------------------------------------------------------------------------
---------------------------------------------------------------------------------

----------------------------------------------------------------------------------
----------------------------------------------------------------------------------
-3--3--2--0--2--0----------------------------------------------7--9--10-----------
--------------------3------------3--8/7--3--8/7--3--7--3--5-----------------------
------------------------3--5------------------------------------------------------
----------------------------------------------------------------------------------


-----------------------------------------------------------------15--13--11--13--11--
---------------------------11--10--11---13--11--13---15--13--13----------------------
--7--9--10----12--11--12-------------------------------------------------------------
-------------------------------------------------------------------------------------
-------------------------------------------------------------------------------------
-------------------------------------------------------------------------------------

------15--13--11--13--11-------------------------------------------------------------
--13---------------------------------------------------------------------------------
-------------------------------------------------------------------------------------
-------------------------------------------------------------------------------------
-------------------------------------------------------------------------------------
-------------------------------------------------------------------------------------


Intro: x8
Riff1: x2
Riff2: x4 (pretty slow)
Riff1: x1
Solo
Riff2: x2
Riff1: x6
Comments