Missionless - Glider Chords & Tabs

 

Glider Chords & Tabs

Missionless Chords & Tabs

Version: 1 Type: Bass Tab 0 ratings
1 star 2 stars 3 stars 4 stars 5 stars
comments

Glider Bass Tab

   
Glider - Rhythm Bass

Gtr I (E A D G) - 'Bass One'


 3/4
Written By Luke Carter, Performed by Missionless  Tabbed by radrory

Intro
|----------|----------|----------|----------|
|----------|----------|----------|----------|
|----------|----------|----------|----------|
|-5--------|-5--------|-5--------|-5--------|

[ Tab from: http://www.guitartabs.cc/tabs/m/missionless/glider_btab.html ]
|----------|----------|----------|------|
|----------|----------|----------|------|
|----------|----------|----------|------|
|-4--------|-4--------|-4--------|-4----|		x5


 Verse
|----------|----------|----------|----------|----------|
|----------|----------|----------|----------|----------|
|----------|----------|----------|-9--7--5--|----------|
|-7--7--7--|-7--7--7--|-7--7--7--|----------|-5--5--5--|


|----------|----------|------------|
|----------|----------|------------|
|----------|----------|------------|
|-5--5--5--|-5--5--5--|-3--2--0----|

Outro
|------|
|------|
|------|
|-7----|

100% sure. Im definite. Bass comes in half way though
Comments