Mission Of Burma - This Is Not A Photograph Chords & Tabs

 

This Is Not A Photograph Chords & Tabs

Mission Of Burma Chords & Tabs

Version: 1 Type: Bass Tab 0 ratings
1 star 2 stars 3 stars 4 stars 5 stars
comments

This Is Not A Photograph Bass Tab

Band: Mission Of Burma
Song: This Is Not A Photograph
Tabbed by: Daniel Rodriguez
E-mail: label1987@hotmail.com

/= slide up

Intro
G|--------------------------|
D|--------------------------|
A|--0-4-4-4-7-7-7-7---------|
E|--------------------------|

Riff 1
G|--------------------------|
D|-2-2-2-2-2-2/6-6-6-6-6-6--|
A|--------------------------|
E|--------------------------|

Riff 2
G|--------------------------|
D|--------------------------|
A|--------------------------|
E|--0-9-9-9-9-7-7-7-7-------|

Riff 3
G|--------------------------|
D|--------------------------|
A|--2/8---------------------|
E|--------------------------|

Riff 4
G|--------------------------|
D|-2-2-2-2-2-2-/6-/7-/8-/9--|
A|--------------------------|
E|--------------------------|
[ Tab from: http://www.guitartabs.cc/tabs/m/mission_of_burma/this_is_not_a_photograph_btab.html ]
Riff 5
G|--4-5--5-5-5-5-5----------|
D|--------------------------|
A|--------------------------|
E|--------------------------|

ORDER
Intro
Riff 1
Riff 2
Riff 1
Riff 2
Riff 1
Riff 2
Riff 1
Riff 2
Riff 1
Riff 2 (4x)
Riff 3
Riff 1
Riff 2
Riff 1
Riff 2
Riff 1
Riff 2
Riff 1
Riff 2
Riff 1
Riff 2 (4x)
Riff 1
Riff 2
Riff 1
Riff 2
Riff 4
Riff 2
Riff 1
Riff 2 (3x)
Riff 5 (3x)
Photograph
Riff 5
Photograph
Riff 5
Photograph
Riff 5

if you have any comments or corrections e-mail me.enjoy!
Check out other tabs by me:
The Clash "I'm So Bored With The U.S.A."
The Clash "Police and Thieves"
The Clash "Rebel Waltz"
The Clash "The Equaliser"
The Clash "The Crooked Beat"
The Clash "Listen"
Black Flag "Paralize"
Patty Smith "Till Victory"
Gang of Four "Love Like Anthrax"
Q And Not U "So Many Animal Calls"
Black Lips "Throw It Away"
Comments