Missing 23rd - Control Your Life Chords & Tabs

 

Control Your Life Chords & Tabs

Missing 23rd Chords & Tabs

Version: 1 Type: Tab 0 ratings
1 star 2 stars 3 stars 4 stars 5 stars
comments

Control Your Life Tab

   
http://www.themissing23rd.com/
----------------------------------------------------------------------------
	         Control Your Life - The Missing 23rd
----------------------------------------------------------------------------
Tabbed by:Nardcore
Email:divided_we_play@hotmail.com

Tuning:Standard

IF YOU HAVEN'T SEEN THEM LIVE, DO YOUR SELF A FAVOR AND SEE THEM!
GO TO http://www.themissing23rd.com/ for info.
Part A
e|---------------------------------------------|
B|---------------------------------------------|
G|------8--------11----------------------------|
D|-6666-8-9-9999-11-11-------------------------|
A|-6666-6-9-9999--9-11-------------------------|
E|-4444---7-7777-----9-------------------------|

Part B
e|---------------------------------------------|
B|---------------------------------------------|
G|------8888------1111-------------------------|
D|-6666-8888-9999-1111-1111--------------------|
A|-6666-6666-9999--9-9-1111--------------------|
E|-4444------7777-------9-9--------------------|
[ Tab from: http://www.guitartabs.cc/tabs/m/missing_23rd/control_your_life_tab.html ]
Part C
e|---------------------------------------------|
B|---------------------------------------------|
G|-111111111111111111~~~~----------------------|
D|-111111111111111111~~~~----------------------|
A|--9-9-9-9-9-9-9-9-9~~~~----------------------|
E|---------------------------------------------|

Part D
e|---------------------------------------------|
B|---------------------------------------------|
G|------6666------44444------------------------|
D|-4444-6666-6666-44444------------------------|
A|-4444-4444-6666-22222------------------------|
E|-2222------4444------------------------------|
PM ....      ....  

Part E
e|---------------------------------------------|
B|---------------------------------------------|
G|---------------------------------------------|
D|-666666666666666666666666--------------------|
A|-666666666666666666666666--------------------|
E|-444444444444444444444444--------------------|
Pm.................

Part F
e|---------------------------------------------|
B|---------------------------------------------|
G|---------------------------------------------|
D|-444444444~~~~-------------------------------|
A|-444444444~~~~-------------------------------|
E|-222222222~~~~-------------------------------|

Order:
Part A x4
Part B x4
Part C x1
Part D x8
Part E x1
Part A x4
Part B x4
Part F x4
Part D x8
Part A x4
Part B x4
Part C x1
Comments