Missing 23rd - Born Into Chords & Tabs

 

Born Into Chords & Tabs

Missing 23rd Chords & Tabs

Version: 1 Type: Tab 0 ratings
1 star 2 stars 3 stars 4 stars 5 stars
comments

Born Into Tab

   
Nardcore
divided_we_play@hotmail.com
Missing 23rd
Born into
Standard

Part A1
e|---------------------------------------------|
B|---------------------------------------------|
G|-8-----44------------------------------------|
D|-8-88--44-9-9--------------------------------|
A|-6-88--22-9-9--------------------------------|
E|---66-----7-7--------------------------------|

Part A2
e|---------------------------------------------|
B|---------------------------------------------|
G|-88-----44-----------------------------------|
D|-88-88--44-9999------------------------------|
A|-66-88--22-9999------------------------------|
E|----66-----7777------------------------------|
PM ..............

Part B1
e|---------------------------------------------|
B|---------------------------------------------|
G|-999-999-999-999-----------------------------|
D|-999-999-999-999-----------------------------|
A|-555-555-555-555-----------------------------|
E|---------------------------------------------|
[ Tab from: http://www.guitartabs.cc/tabs/m/missing_23rd/born_into_tab.html ]
Part B2
e|---------------------------------------------|
B|---------------------------------------------|
G|-999-999-------------------------------------|
D|-999-999-6666--------------------------------|
A|-555-555-6666--------------------------------|
E|---------4444--------------------------------|

Part B3
e|---------------------------------------------|
B|---------------------------------------------|
G|-999-999x------------------------------------|
D|-999-999x------------------------------------|
A|-555-555x------------------------------------|
E|---------------------------------------------|

Part C (Obviously not the strumming, you figure it out)
e|---------------------------------------------|
B|---------------------------------------------|
G|-7---8-----8-7---8---------------------------|
D|-7---8-8---8-7---8-8--6----------------------|
A|-5---6-8---6-5---6-8--6----------------------|
E|-------6-----------6--4----------------------|

Order:
Part A1 x4
Part A2 x4
Part B1 x3
Part B2 x1
Part B1 x3
Part B3 x1
Part A1 x8
Part C  x3
Part A2 x4
Part A1 x8
Comments