Missing 23rd - Abused Chords & Tabs

 

Abused Chords & Tabs

Missing 23rd Chords & Tabs

Version: 1 Type: Tab 0 ratings
1 star 2 stars 3 stars 4 stars 5 stars
comments

Abused Tab

   
http://www.themissing23rd.com/
----------------------------------------------------------------------------
			     Abused - The Missing 23rd
----------------------------------------------------------------------------
Tabbed by:Nardcore
Email:divided_we_play@hotmail.com

Standard tuning.

Part A
e|----------------0~~~~~~~~~-------------------|
B|----------------0~~~~~~~~~-------------------|
G|-9~-99999999----0~~~~~~~~~-------------------|
D|-9~-99999999---------------------------------|
A|-7~-77777777---------------------------------|
E|---------------------------------------------|
PM    ........ 

Part B
e|---------------------------------------------|
B|---------------------------------------------|
G|-7-99-7-99-7-99-7-99---13-1313---------------|
D|-7-99-7-99-7-99-7-99---13-1313-12-1212-------|
A|-5-77-5-77-5-77-5-77---11-1111-12-1212-------|
E|-------------------------------10-1010-------|
[ Tab from: http://www.guitartabs.cc/tabs/m/missing_23rd/abused_tab.html ]
Part C
e|---------------------------------------------|
B|---------------------------------------------|
G|-7/9-9-9999-9-9-9999--14------12-11----------|
D|-7/9-9-9999-9-9-9999--14-14---12-11-12-11----|
A|-5/7-7-7777-7-7-7777--12-14---10--9-12-11----|
E|-------------------------12---------10--9----|
PM       ....     ....

Part D1
e|---------------------------------------------|
B|---------------------------------------------|
G|-7-99-7-99-7-99-9/12-10----------------------|
D|-7-99-7-99-7-99-9/12-10----------------------|
A|-5-77-5-77-5-77-7/10--9----------------------|
E|---------------------------------------------|

Part D2
e|---------------------------------------------|
B|---------------------------------------------|
G|-7-99-7-99-9/12-10---------------------------|
D|-7-99-7-99-9/12-10-55-4----------------------|
A|-5-77-5-77-7/10--9-55-4----------------------|
E|-------------------33-2----------------------|

Order:
Part A  x4
Part B  x4
Part C  x4
Part D1 & D2 paired x5 (i.e. D1,D2,D1,D2...)
End with
e|-----|
B|-----|
G|-----|
D|-4-2-|
A|-4-2-|
E|-2-0-|
Comments