Misled - Alience Chords & Tabs

 

Alience Chords & Tabs

Misled Chords & Tabs

Version: 1 Type: Tab 0 ratings
1 star 2 stars 3 stars 4 stars 5 stars
comments

Alience Tab

   
-------------------------------------------------------------------------------
			      ALIENCE      
-----------------------------------------------------------

By:Twisted Riffer

key notation
v=vabrato
b=bend
br=bend realeas
p.m=palm mute
*=play the chord then mute it right after

Intro: Clean
e|--------------------------------------------------------------------------|
B|--------------------------------------------------------------------------|
G|--------------------7-------9-------7-------5-------4---------------------|
D|----2-------5-----7---7---9---9---7---7---5---5---4---4-----3-------2-----|
A|--2---2---5---5-5-------7-------5-------3-------2---------3---3---2---2---|
E|0-------3-----------------------------------------------1-------0-------0-|

Verse: distortion
e|-----------------------------------------------------------------|
B|-----------------------------------------------------------------|
G|---------------------7-7-7-7--9-7-5-4-4-4-5----------------------|
D|2--2-2-2-2--5-5-5-5--7-7-7-7--9-7-5-4-4-4-5-3*-3*-3*-3*-3*-3*-2~-|
A|2--2-2-2-2--5-5-5-5--5-5-5-5--7-5-3-2-2-2-3-3*-3*-3*-3*-3*-3*-2~-|
E|0--0-0-0-0--3-3-3-3-------------------------1*-1*-1*-1*-1*-1*-0~-|
       -p.m.    -p.m.    -p.m.
[ Tab from: http://www.guitartabs.cc/tabs/m/misled/alience_tab.html ]
Chorus1
e|-----------------------------------------|
B|-----------------------------------------|
G|-----------------------------------------|
D|-5-5-5-5-5-9-9-9-9-9-7-7-7-7-7-2-2-2-2-2-|
A|-5-5-5-5-5-9-9-9-9-9-7-7-7-7-7-2-2-2-2-2-|
E|-3-3-3-3-3-7-7-7-7-7-5-5-5-5-5-0-0-0-0-0-|
Chorus2
e|----------------------------------------------|
B|----------------------------------------------|
G|----------------------------------------------|
D|-5-5-5-5-5-9-9-9-9-9-7-7-7-7-7-12-12-12-12-12-|
A|-5-5-5-5-5-9-9-9-9-9-7-7-7-7-7-12-12-12-12-12-|
E|-3-3-3-3-3-7-7-7-7-7-5-5-5-5-5-10-10-10-10-10-|


this is for the tempo change 
riff1
e|-------------------------------------------|
B|-------------------------------------------|
G|---------7---------9---------5---------3-2-|
D|---------7---------9---------5---------3-2-|
A|---------5---------7---------3---------3-2-|
E|-0-0-0-0---0-0-0-0---0-0-0-0---0-0-0-0-----|
   --p.m--   --p.m--   --p.m--   --p.m--

riff2
e|---------------------------------------|
B|---------------------------------------|
G|---------7\5---------7/9---------9-7-5-|
D|---------7\5---------7/9---------9-7-5-|
A|---------5\3---------5/7---------7-5-3-|
E|-0-0-0-0-----0-0-0-0-----0-0-0-0-------|
   --p.m--     --p.m--     --p.m--
riff3

e|-------------------------------------|
B|-------------------------------------|
G|-------4-------3-------7-------7br5v-|
D|-------3-------2-------6-------------|
A|-------2-------1-------5-------------|
E|-0-0-0---0-0-0---0-0-0---0-0-0-------|
   -p.m-   -p.m-   -p.m-   -p.m-


============================================================
Comments