Misfits - You Belong To Me Chords & Tabs

 

You Belong To Me Chords & Tabs

Misfits Chords & Tabs

Version: 1 Type: Tab 0 ratings
1 star 2 stars 3 stars 4 stars 5 stars
comments

You Belong To Me Tab

   
band: misfits
song: you belong to me

tabber: John cukras
email: riffreaper@yahoo.com

Tuning: normal

Intro:
E----------------------------------
B----------------------------------
G----------------------------------
D-5-5-5-5-5-----------------------5
A-3-3-3-3-3--333333-555555--------3
E------------111111-333333 x's 2---

Riff 1:
E----------------------------------------------------------------------------------
B----------------------------------------------------------------------------------
G----------------------------------------------------------------------------------
D-------------------55555555------------------5-----------------------------5555555
A-33333333-55555555-33333333-33333333-5555555-3-3-5555555-33333333-55555555-3333333
E-11111111-33333333----------11111111-3333333---1-3333333-11111111-33333333--------  x's 2
[ Tab from: http://www.guitartabs.cc/tabs/m/misfits/you_belong_to_me_tab.html ]
Riff 2:
E-----------------------------------------------------------------
B-----------------------------------------------------------------
G-----------------------------------------------------------------
D-------------55555------------55555555555-----------------5555555
A-33333333333-33333-5555555555-33333333333-3333333-5555555-3333333
E-11111111111-------3333333333-------------1111111-3333333--------

Riff 1 x's 2 (played under solo)

Riff 2 

Riff 1

Riff 3:
E---------------------------------------------
B---------------------------------------------
G---------------------------------------------
D-55555-------------------55555--------------5
A-33333-55555-33333-55555-33333-55555-3--5---3
E-------33333-11111-33333-------33333-1--3----

Intro x's 2

Solo:
E---------------------------------------------------------
B---------------------------------------------------------
G---------------------------------------------------------
D---------------1~-3-1--3~-5-7-5-3-5----------------------
A-3~-5-7-5-3-5------------------------1~-3-1---------5-4-3
E---------------------------------------------1~-3~-------
Comments