Misfits - X Games Theme Chords & Tabs

 

X Games Theme Chords & Tabs

Misfits Chords & Tabs

Version: 2 Type: Tab 0 ratings
1 star 2 stars 3 stars 4 stars 5 stars
comments

X Games Theme Tab

   
-------------------------------------------------------------------------------
			     X-Games Theme - Misfits
-------------------------------------------------------------------------------
Tabbed by: AstroZombie138(Antero Sosa)
Email: astrozombie138@gmail.com

Tuning: 1/2 step down

eb|---------------------------------------------------------------------------|
Bb|---------------------------------------------------------------------------|
Gb|---------------------------------------------------------------------------|
Db|---------------------------------------------------------------------------|
Ab|--3:-----------4-5-----------4-5---3:-----------4-5-----------4-5---3:-----|
Eb|--1:--0-0-0-0--2-3--0-0-0-0--2-3-0-1:--0-0-0-0--2-3--0-0-0-0--2-3-0-1:-----|
(PM)     . . . .       . . . .      .     . . . .       . . . .      .

eb|---------------------------------------------------------------------------|
Bb|---------------------------------------------------------------------------|
Gb|---------------------------------------------------------------------------|
Db|--9--7-7-7-7---7--5-5-5-5---5------------5--7--7-7-------------------------|
Ab|--7--5-5-5-5---5--3-3-3-3---3--5-5-5-5---3--5--5-5-------------------------|
Eb|-------------------------------3-3-3-3-------------------------------------|

eb|---------------------------------------------------------------------------|
Bb|---------------------------------------------------------------------------|
Gb|---------------------------------------------------------------------------|
Db|--9--7-7-7-7-7-7-7-7---7--5-5-5-5-5-5-5-5---5------------------------------|
Ab|--7--5-5-5-5-5-5-5-5---5--3-3-3-3-3-3-3-3---3--5--5--5--5------------------|
Eb|-----------------------------------------------3--3--3--3------------------|
(PM)      . . . . . . .        . . . . . . .
[ Tab from: http://www.guitartabs.cc/tabs/m/misfits/x_games_theme_tab_ver_2.html ]
eb|-----------------------------------------------|
Bb|-----------------------------------------------|
Gb|-----------------------------------------------|
Db|--7-7--7---7-7--7---7-7--7---7-7--7---7-7--7---|
Ab|--5-5--5---5-5--5---5-5--5---5-5--5---5-5--5---|
Eb|-----------------------------------------------|
(PM) . .      . .      . .      . .      . .

eb|---------------------------------------------------------------------------|
Bb|---------------------------------------------------------------------------|
Gb|---------------------------------------------------------------------------|
Db|--9--7-7-7-7---7--5-5-5-5---5------------5--7--7-7-------------------------|
Ab|--7--5-5-5-5---5--3-3-3-3---3--5-5-5-5---3--5--5-5-------------------------|
Eb|-------------------------------3-3-3-3-------------------------------------|

eb|---------------------------------------------------------------------------|
Bb|---------------------------------------------------------------------------|
Gb|---------------------------------------------------------------------------|
Db|--9--7-7-7-7---7--5-5-5-5---5------------5--7--7-7-------------------------|
Ab|--7--5-5-5-5---5--3-3-3-3---3--5-5-5-5---3--5--5-5-------------------------|
Eb|-------------------------------3-3-3-3-------------------------------------|


eb|---------------------------------------------------------------------------|
Bb|---------------------------------------------------------------------------|
Gb|---------------------------------------------------------------------------|
Db|--9--7-7-7-7---7--5-5-5-5---5-------9--9--9--9--9-9-9----------------------|
Ab|--7--5-5-5-5---5--3-3-3-3---3--5:---7--7--7--7--7-7-7----3:----------------|
Eb|-------------------------------3:------------------------1:----------------|
(PM)      . . .        . . .           .     .      

eb|----------------------|
Bb|----------------------|
Gb|----------------------|
Db|----------------------|
Ab|-----------4-5--------|
Eb|--0-0-0-0--2-3--------|
(PM) . . . .

| PM Palm mute
| :  Hold chord
| /  slide up
| \  slide down
| h  hammer-on
| p  pull-off
| ~  vibrato
| +  harmonic
| x  Mute note
===============================================================================
Comments