Misfits - X Games Theme Chords & Tabs

 

X Games Theme Chords & Tabs

Misfits Chords & Tabs

Version: 1 Type: Tab 0 ratings
1 star 2 stars 3 stars 4 stars 5 stars
comments

X Games Theme Tab

   
Band: Misfits
Song: X Games Theme

Tabber: John Cukras
Email: riffreaper@yahoo.com

Tuning: Normal

Riff 1:
E------------------------------|
B------------------------------|
G------------------------------|
D-2222------2222-----2---------|
A-2222-3-5--2222-3-5-2-3-------|
E-0000-1-3--0000-1-3-0-1 x's 2-|

Riff 2:
E----------------------------|
B----------------------------|
G----------------------------|
D-99-77--77-55--55--------77-|
A-77-55--55-33--33-55--77-55-|
E------------------33--55----|
[ Tab from: http://www.guitartabs.cc/tabs/m/misfits/x_games_theme_tab.html ]
Riff 3:
E--------------------------------------------------------|
B--------------------------------------------------------|
G--------------------------------------------------------|
D-99-7-7777777-7-5-555555-5----------77-7-77-7-77-7-77-7-|
A-77-5-5555555-5-3-333333-3-5555555--55-5-55-5-55-5-55-5-|
E---------------------------3333333----------------------|
pm     .......     ......            ..   ..   ..   ..

Riff 2 x's 2

Riff 4:
E------------------------------------|
B------------------------------------|
G------------------------------------|
D-99-7-777-7-5-555-5-----9-99-999----|
A-77-5-555-5-3-333-3-5---7-77-777--7-|
E--------------------3-------------5-|
pm     ...     ...

End:
E----------|
B----------|
G----------|
D-2222-----|
A-2222-3-5-|
E-0000-1-3-|
Comments