Misfits - Witch Hunt Chords & Tabs

 

Witch Hunt Chords & Tabs

Misfits Chords & Tabs

Version: 2 Type: Tab 0 ratings
1 star 2 stars 3 stars 4 stars 5 stars
comments

Witch Hunt Tab

MISFITS
WITCH HUNT
ALBUM ?
TABBED BY Doyle Wolfgang von Frankenstein (manuel.metzl@gmx.at)
[ Tab from: http://www.guitartabs.cc/tabs/m/misfits/witch_hunt_tab_ver_2.html ]
E--------------------------------------------------------|
B--------------------------------------------------------|
G--6----7----2----9--------6----7----2-----9-------------|
D--6-4X-7-4X-2-4X-9-4X-----6-4X-7-4X-2-4X--9-4X----------|
A--4----5----0----7--------4----5----0-----7-------------|
E--------------------------------------------------------|
                                          ^PM^
E--------------------------------------------------------|
B--------------------------------------------------------|
G--6----7----2----9--------7-----------7-----9-----------|
D--6-4X-7-4X-2-4X-9-4X-----7-16X-7-----7-16X-9-16X-------|
A--4----5----0----7--------5-----7-16X-5-----7-----------|
E--------------------------------5-----------------------|
  ^~~~~~~~~4X~~~~~~~~^
   ^~~~~~~~PM~~~~~~~^
E--------------------------------------------------------|
B--------------------------------------------------------|
G--6----7----2----9-------6----7----2----9---------------|
D--6-4x-7-4x-2-4x-9-4x----6-4x-7-4x-2-4x-9-4x------------|
A--4----5----0----7-------4----5----0----7---------------|
E--------------------------------------------------------|
  ^~~~~~~~~2x~~~~~~~~^   ^~~~~~~~~4x~~~~~~~~^
                          ^~~~~~~~PM~~~~~~~^
E--------------------------------------------------------|
B--------------------------------------------------------|
G--7-----------7-----9-----------------------------------|
D--7-16X-7-----7-16X-9-16X-----7--7-7-7-7-77-56----------|
A--5-----7-16X-5-----7---------7--7-7-7-7-77-56----------|
E--------5---------------------5--5-5-5-5-55-34----------|
 GUITAR 1 PART    GUITAR 2PART ^~~~~~~~4X~~~~~~^
E---------------  E------------------------|
B--8B-9B----9B--  B------------------------|
G---------------  G--6----7----2----9------|
D--^---4X-----^-  D--6-4X-7-4X-2-4X-9-4X---|
A---------------  A--4----5----0----7------|
E---------------  E------------------------|
                     ^~~~~~~~~4x~~~~~~~~^
E--------------------------------------------------------|
B--------------------------------------------------------|
G--7-----------7-----9-----------------------------------|
D--7-16X-7-----7-16X-9-16X-7---------7--7-7-7-7-77-56----|
A--5-----7-16X-5-----7-----7-12X-----7--7-7-7-7-77-56----|
E--------5-----------------5---------5--5-5-5-5-55-34----|
                                     ^~~~~~~~4X~~~~~~~^
E--------------------------------------------------------|
B--------------------------------------------------------|
G--------------------------------------------------------|
D--7--7--7--7--------------------------------------------|
A--7--7--7--7-6X-----------------------------------------|
E--5--5--5--5--------------------------------------------|
HANG HER BY HER NECK TO-DAY
Comments