Misfits - We Are 138 Chords & Tabs

 

We Are 138 Chords & Tabs

Misfits Chords & Tabs

Version: 2 Type: Tab 0 ratings
1 star 2 stars 3 stars 4 stars 5 stars
comments

We Are 138 Tab

   
~-let it ring
h-hammer on
p-pull off



Intro:

e:-------
b:-------
g:-------
D:-9~~~~~
A:-7~~~~~
E:-------



e:----------------------
b:----------------------
g:----------------------    repeat 2X
D:-9--9--9--9--9--9--5-7  
A:-7--7--7--7--7--7--3-5
E:----------------------

e:-------------------------
b:-------------------------
g:-------------------------
D:-5-5-5-5-5-5--7-7-7-7-7-7
A:-3-3-3-3-3-3--7-7-7-7-7-7
E:-------------------------
_______________________________________________


e:----------------
b:----------------
g:----------------
D:-9-9-9-9-9-9-5-7  repeat 4X          play faster
A:-7-7-7-7-7-7-3-5                       than begining
E:----------------


e:-------------------------
b:-------------------------
g:-------------------------
D:-5-5-5-5-5-5--7-7-7-7-7-7
A:-3-3-3-3-3-3--7-7-7-7-7-7
E:-------------------------

e:----------------
b:----------------
g:----------------  repeat 3X
D:-9-9-9-9-9-9-5-7  
A:-7-7-7-7-7-7-3-5
E:----------------

e:-------------------------
b:-------------------------
g:-------------------------
D:-5-5-5-5-5-5--7-7-7-7-7-7
A:-3-3-3-3-3-3--7-7-7-7-7-7
E:-------------------------

Verse:

e:----------------------------------------------
b:----------------------------------------------
g:----------------------------------------------
D:-9-9-9-9-9-9-9-9-9-9-9-9-9-9-9-9-9-9-9-9-9-9-9
A:-7-7-7-7-7-7-7-7-7-7-7-7-7-7-7-7-7-7-7-7-7-7-7
E:----------------------------------------------
[ Tab from: http://www.guitartabs.cc/tabs/m/misfits/we_are_138_tab_ver_2.html ]
do you think we are robot clean?
do you think tis face looks mean?



e:-------------------------
b:-------------------------
g:-------------------------
D:-5-5-5-5-5-5--7-7-7-7-7-7
A:-3-3-3-3-3-3--5-5-5-5-5-5
E:-------------------------

Its time to be an android not a man



e:----------------------------------------------
b:----------------------------------------------
g:----------------------------------------------
D:-9-9-9-9-9-9-9-9-9-9-9-9-9-9-9-9-9-9-9-9-9-9-9
A:-7-7-7-7-7-7-7-7-7-7-7-7-7-7-7-7-7-7-7-7-7-7-7
E:----------------------------------------------
 
the pleasantries are gone 
were stripped of all we were



e:-------------------------
b:-------------------------
g:-------------------------
D:-5-5-5-5-5-5--7-7-7-7-7-7
A:-3-3-3-3-3-3--7-7-7-7-7-7
E:-------------------------

In the eyes of Tiger

Solo:
e:-78-78-78-78-78-78-78-78-b8-b8-b8-b8-b8-b8-b8~~~
b:------------------------------------------------
g:------------------------------------------------
D:------------------------------------------------
A:------------------------------------------------
E:------------------------------------------------



chorus:

e:----------------
b:----------------
g:----------------
D:-9-9-9-9-9-9-5-7 X2 
A:-7-7-7-7-7-7-3-5                       
E:----------------

   we are 138

e:-------------------------
b:-------------------------
g:-------------------------
D:-5-5-5-5-5-5--7-7-7-7-7-7
A:-3-3-3-3-3-3--5-5-5-5-5-5
E:-------------------------

We are 133333338888888888

repeat ending 2X
Comments