Misfits - We Are 138 Chords & Tabs

 

We Are 138 Chords & Tabs

Misfits Chords & Tabs

Version: 1 Type: Bass Tab 0 ratings
1 star 2 stars 3 stars 4 stars 5 stars
comments

We Are 138 Bass Tab

    From: Jim_Rutzler@msn.com (James Rutzler)
    To: dwm3@po.cwru.edu
    Subject: ooopps
    Date: Fri, 20 Dec 96 01:13:10 UT

    
    your misfits tab for we are 138 is wrong.  I've been playing the song for 
    almost three months and it's played like this:Intro
    G-------------------------------------------------------------------------
    D--2----------2-2-2-2-2-2-------2-2-2-2-2-2-------------------------------
    A------------------------------3-5------------------3-5---3-3-3-3-5-5-5-5-
    E-------------------------------------------------------------------------

    G------------------------------------------------------------------------------------------
    D2222222222------2222222222-----2222222222-----222222222-----------------------------------
    A-----------------3-5-------------------3-5------------------3-5--------3-5-333333-555555--
    E------------------------------------------------------------------------------------------

    G-------------------------------------------------------------------------------
    D2222222222-----2222222222------2222222222--------------------------------------
    A------------------3-5------------------3-5-------------------3-5--333333-55555-
    E-------------------------------------------------------------------------------
[ Tab from: http://www.guitartabs.cc/tabs/m/misfits/we_are_138_btab.html ]
    G-------------------------------------------------------------------------------
    D-222222222222222222222222222222222222-----------------------------(x2)---------
    A-----------------------------------------------------------------333333-555555-         
    E-------------------------------------------------------------------------------

    (solo)
    G------------------------------------------------------------------------------------------
    D22222222222222222222222222222222222-----2222222222----------------------------------------
    A-------------------------------------------------------------3-5--------3-5-333333-555555-
    E------------------------------------------------------------------------------------------

    
    G--------------------------------------------------------------------------------
    D 2222222222-----2222222222-----2222222222---------------------------------------
    A-------------------3-5------------------3-5------------------3-5--333333-555555-
    E--------------------------------------------------------------------------------

    (outro)
    G---------------------------------------------------------------------------
    D  2-2-2-2-----------------------2-2-2-2-2-2-2-2------------------------2---
    A-------------3-3-3-3-5-5-5-5------------------------3-3-3-3-5-5-5-5--------
    E---------------------------------------------------------------------------

    try that it will work better
    jim rutzler aka JDR3
 
Comments