Misfits - Walk Among Us Chords & Tabs

 

Walk Among Us Chords & Tabs

Misfits Chords & Tabs

Version: 3 Type: Tab

Walk Among Us Tab

E|--------------------|  |-------|
B|--------------------|  |-------|
G|--------------------|  |-------|
D|--------------------|  |-------|
A|--7~-x-6~-x-5~-x-4~-|  |-5-4-2-|
E|--5~-x-4~-x-3~-x-2~-|x2|-3-2-0-|
 (repeat notes rapidly)(intro)
[ Tab from: http://www.guitartabs.cc/tabs/m/misfits/walk_among_us_tab_ver_3.html ]
E|---------------------------------------| |--------------------------|
B|---------------------------------------| |--------------------------|
G|---------------------------------------| |--------------------------|
D|-------------------------7~------------| |x-x-x-x-x-x-x-x-x-x-------|
A|-2222222222222222222222--5~-7~-2~~-222-| |x-x-x-x-x-x-x-x-x-x-2/8/2-|
E|-0000000000000000000000-----5~-0~~-000-| |x-x-x-x-x-x-x-x-x-x-2/8/0-|
           (main riff part 1)                 (main riff part 2)

E|---------------------------------------------|
B|---------------------------------------------|
G|---------------------------------------------|
D|-7-7-7-xxx-----------------------------------|
A|-5-5-5-xxx-7-7-7-xxx-2-2-222-----------------|
E|-----------5-5-5-xxx-0-0-000-2-0-x-2-0-x-2-0-|
                   (chorus)
Order:

Intro
main riff 1
main riff 2 (x4)
chorus (x2)
intro
main riff 1
main riff 2 (x4)
chorus (x2)
intro 

And there you have a kick ASS song by the Misfits. You can find Walk Among Us on one
of their newer albumbs, American Psyco. (Good CD) Feel free to contact me about what
you think of this tab. It's my first, but i've been working on this song for about a
month, and i'm POSSITIVE it's right. Enjoy.)