Misfits - Walk Among Us Chords & Tabs

 

Walk Among Us Chords & Tabs

Misfits Chords & Tabs

Version: 1 Type: Tab 0 ratings
1 star 2 stars 3 stars 4 stars 5 stars
comments

Walk Among Us Tab

Misfits 
Walk among us
Tabbed by: Bingles

This tab needs ALOT of work. Someone please fix it and resubmit it,
as I couldn't find any sort of tab for it online. (not looking very
hard, mind you.) Also, dont try to to get the rhythm from this tab.
You'll get lost. 

By now you've probably figured out this is the first song I've tabbed from scratch.


Tuning: Drop D (DADGBe)
/ = Slide up
\ = Slide down
X = Palm Mute 

intro: I dont know how to get the exact sound, but this sorta works if you're
playing along with the CD:

Play 2X
|--------------------------------------------|
|--------------------------------------------|
|--------------------------------------------|
|--5/8---7--6--5-----------------------------|
|--5/8---7--6--5-----------------------------|
|--5/8---7--6--5-----------------------------| 

|---------------------------------------|
|---------------------------------------|
|---------------------------------------|
|-4--3--1-------------------------------|
|-4--3--1-------------------------------|
|-4--3--1-------------------------------|

1st Verse:
|---------------------------------------------------|
|---------------------------------------------------|
|-------------------6-6-6-6-6-----------------------|
|--1---X--X--X------6-6-6-6-6--6-6-6-0-1--0---------|
|--1---X--X--X------4-4-4-4-4--6-6-6-0-1--0---------|
|--1---X--X--X-----------------6-6-6-0-1--0---------|
                    ^0:14                 ^ Bend behind the nut, like in IRONMAN
                                                                  (Black Sabbath)
[ Tab from: http://www.guitartabs.cc/tabs/m/misfits/walk_among_us_tab.html ]
Now we slide for the verse. play 3x
|-------------------------------------------|
|-------------------------------------------|
|-------------------------------------------|
|-1-X-X-/8\1-X------------------------------|
|-1-X-X-/8\1-X------------------------------|
|-1-X-X-/8\1-X------------------------------|

Chorus: play 2X
|--------------------------------------------|
|--------------------------------------------|
|-6-6-6-6-6----------------------------------|
|-6-6-6-6-6---6-6-6-6-6--1-1---1-1---1-1-----|
|-4-4-4-4-4---6-6-6-6-6--1-1---1-1---1-1-----|
|-------------6-6-6-6-6--1-1-4-1-1-4-1-1-4---|
                         ^ Reminds me of FUEL (Metallica) 
Play once: 
|-----------------------------------------------|
|-----------------------------------------------|
|-----------------------------------------------|
|--5/8---7--6--5----4--3--1---------------------|
|--5/8---7--6--5----4--3--1---------------------|
|--5/8---7--6--5----4--3--1---------------------| 

2nd Verse:
|------------------------------------------|
|------------------------------------------|
|------------------------------------------|
|-1-X-X-/8\1-------------------------------|
|-1-X-X-/8\1-------------------------------|
|-1-X-X-/8\1-------------------------------|

Chorus: play 2X
|--------------------------------------------|
|--------------------------------------------|
|-6-6-6-6-6----------------------------------|
|-6-6-6-6-6---6-6-6-6-6--1-1---1-1---1-1-----|
|-4-4-4-4-4---6-6-6-6-6--1-1---1-1---1-1-----|
|-------------6-6-6-6-6--1-1-4-1-1-4-1-1-4---|

Play 2X
|--------------------------------------------|
|--------------------------------------------|
|--------------------------------------------|
|--5/8---7--6--5-----------------------------|
|--5/8---7--6--5-----------------------------|
|--5/8---7--6--5-----------------------------| 


Finish with: 
|---------------------------------------|
|---------------------------------------|
|---------------------------------------|
|-4--3--1-------------------------------|
|-4--3--1-------------------------------|
|-4--3--1-------------------------------|
Comments