Misfits - Tv Casualty Chords & Tabs

 

Tv Casualty Chords & Tabs

Misfits Chords & Tabs

Version: 1 Type: Tab 0 ratings
1 star 2 stars 3 stars 4 stars 5 stars
comments

Tv Casualty Tab

=======Tv. Casualty=========
Tuning: Standard
[ Tab from: http://www.guitartabs.cc/tabs/m/misfits/tv_casualty_tab.html ]
Intro: 
1|---------------------------------------------------------------------
2|---------------------------------------------------------------------
3|---------------------------------------------------------------------
4|2-2-3-2-2-2-3--------------------------------------------------------
5|0-0-0-0-0-0-0--------------------------------------------------------
6|---------------------------------------------------------------------

Chorus:
1|-----------------------|
2|-----------------------|
3|-----------------------|
4|-4-4-3-3-3-4-4-4-3-3-3-|
5|-2-2-1-1-1-2-2-2-1-1-1-|
6|-----------------------|  Haha dont worry about the I love Lucy theme..
Comments